  0
SECTION
  2
HEADER
  9
$ACADVER
  1
AC1015
  9
$ACADMAINTVER
 70
     6
  9
$DWGCODEPAGE
  3
ASCII
  9
$INSBASE
 10
0.0
 20
0.0
 30
0.0
  9
$EXTMIN
 10
1.000000000000000E+20
 20
1.000000000000000E+20
 30
1.000000000000000E+20
  9
$EXTMAX
 10
-1.000000000000000E+20
 20
-1.000000000000000E+20
 30
-1.000000000000000E+20
  9
$LIMMIN
 10
0.0
 20
0.0
  9
$LIMMAX
 10
12.0
 20
9.0
  9
$ORTHOMODE
 70
     0
  9
$REGENMODE
 70
     1
  9
$FILLMODE
 70
     1
  9
$QTEXTMODE
 70
     0
  9
$MIRRTEXT
 70
     1
  9
$LTSCALE
 40
1.0
  9
$ATTMODE
 70
     1
  9
$TEXTSIZE
 40
0.2
  9
$TRACEWID
 40
0.05
  9
$TEXTSTYLE
  7
Standard
  9
$CLAYER
  8
0
  9
$CELTYPE
  6
ByLayer
  9
$CECOLOR
 62
   256
  9
$CELTSCALE
 40
1.0
  9
$DISPSILH
 70
     0
  9
$DIMSCALE
 40
1.0
  9
$DIMASZ
 40
0.18
  9
$DIMEXO
 40
0.0625
  9
$DIMDLI
 40
0.38
  9
$DIMRND
 40
0.0
  9
$DIMDLE
 40
0.0
  9
$DIMEXE
 40
0.18
  9
$DIMTP
 40
0.0
  9
$DIMTM
 40
0.0
  9
$DIMTXT
 40
0.18
  9
$DIMCEN
 40
0.09
  9
$DIMTSZ
 40
0.0
  9
$DIMTOL
 70
     0
  9
$DIMLIM
 70
     0
  9
$DIMTIH
 70
     1
  9
$DIMTOH
 70
     1
  9
$DIMSE1
 70
     0
  9
$DIMSE2
 70
     0
  9
$DIMTAD
 70
     0
  9
$DIMZIN
 70
     0
  9
$DIMBLK
  1

  9
$DIMASO
 70
     1
  9
$DIMSHO
 70
     1
  9
$DIMPOST
  1

  9
$DIMAPOST
  1

  9
$DIMALT
 70
     0
  9
$DIMALTD
 70
     2
  9
$DIMALTF
 40
25.4
  9
$DIMLFAC
 40
1.0
  9
$DIMTOFL
 70
     0
  9
$DIMTVP
 40
0.0
  9
$DIMTIX
 70
     0
  9
$DIMSOXD
 70
     0
  9
$DIMSAH
 70
     0
  9
$DIMBLK1
  1

  9
$DIMBLK2
  1

  9
$DIMSTYLE
  2
Standard
  9
$DIMCLRD
 70
     0
  9
$DIMCLRE
 70
     0
  9
$DIMCLRT
 70
     0
  9
$DIMTFAC
 40
1.0
  9
$DIMGAP
 40
0.09
  9
$DIMJUST
 70
     0
  9
$DIMSD1
 70
     0
  9
$DIMSD2
 70
     0
  9
$DIMTOLJ
 70
     1
  9
$DIMTZIN
 70
     0
  9
$DIMALTZ
 70
     0
  9
$DIMALTTZ
 70
     0
  9
$DIMUPT
 70
     0
  9
$DIMDEC
 70
     4
  9
$DIMTDEC
 70
     4
  9
$DIMALTU
 70
     2
  9
$DIMALTTD
 70
     2
  9
$DIMTXSTY
  7
Standard
  9
$DIMAUNIT
 70
     0
  9
$DIMADEC
 70
     0
  9
$DIMALTRND
 40
0.0
  9
$DIMAZIN
 70
     0
  9
$DIMDSEP
 70
    46
  9
$DIMATFIT
 70
     3
  9
$DIMFRAC
 70
     0
  9
$DIMLDRBLK
  1

  9
$DIMLUNIT
 70
     2
  9
$DIMLWD
 70
    -2
  9
$DIMLWE
 70
    -2
  9
$DIMTMOVE
 70
     0
  9
$LUNITS
 70
     2
  9
$LUPREC
 70
     4
  9
$SKETCHINC
 40
0.1
  9
$FILLETRAD
 40
0.5
  9
$AUNITS
 70
     0
  9
$AUPREC
 70
     0
  9
$MENU
  1
.
  9
$ELEVATION
 40
0.0
  9
$PELEVATION
 40
0.0
  9
$THICKNESS
 40
0.0
  9
$LIMCHECK
 70
     0
  9
$CHAMFERA
 40
0.5
  9
$CHAMFERB
 40
0.5
  9
$CHAMFERC
 40
1.0
  9
$CHAMFERD
 40
0.0
  9
$SKPOLY
 70
     0
  9
$TDCREATE
 40
2455735.655972199
  9
$TDUCREATE
 40
2455735.322638866
  9
$TDUPDATE
 40
2455735.655972211
  9
$TDUUPDATE
 40
2455735.322638877
  9
$TDINDWG
 40
0.0000000116
  9
$TDUSRTIMER
 40
0.0000000116
  9
$USRTIMER
 70
     1
  9
$ANGBASE
 50
0.0
  9
$ANGDIR
 70
     0
  9
$PDMODE
 70
     0
  9
$PDSIZE
 40
0.0
  9
$PLINEWID
 40
0.0
  9
$SPLFRAME
 70
     0
  9
$SPLINETYPE
 70
     6
  9
$SPLINESEGS
 70
     8
  9
$HANDSEED
  5
603
  9
$SURFTAB1
 70
     6
  9
$SURFTAB2
 70
     6
  9
$SURFTYPE
 70
     6
  9
$SURFU
 70
     6
  9
$SURFV
 70
     6
  9
$UCSBASE
  2

  9
$UCSNAME
  2

  9
$UCSORG
 10
0.0
 20
0.0
 30
0.0
  9
$UCSXDIR
 10
1.0
 20
0.0
 30
0.0
  9
$UCSYDIR
 10
0.0
 20
1.0
 30
0.0
  9
$UCSORTHOREF
  2

  9
$UCSORTHOVIEW
 70
     0
  9
$UCSORGTOP
 10
0.0
 20
0.0
 30
0.0
  9
$UCSORGBOTTOM
 10
0.0
 20
0.0
 30
0.0
  9
$UCSORGLEFT
 10
0.0
 20
0.0
 30
0.0
  9
$UCSORGRIGHT
 10
0.0
 20
0.0
 30
0.0
  9
$UCSORGFRONT
 10
0.0
 20
0.0
 30
0.0
  9
$UCSORGBACK
 10
0.0
 20
0.0
 30
0.0
  9
$PUCSBASE
  2

  9
$PUCSNAME
  2

  9
$PUCSORG
 10
0.0
 20
0.0
 30
0.0
  9
$PUCSXDIR
 10
1.0
 20
0.0
 30
0.0
  9
$PUCSYDIR
 10
0.0
 20
1.0
 30
0.0
  9
$PUCSORTHOREF
  2

  9
$PUCSORTHOVIEW
 70
     0
  9
$PUCSORGTOP
 10
0.0
 20
0.0
 30
0.0
  9
$PUCSORGBOTTOM
 10
0.0
 20
0.0
 30
0.0
  9
$PUCSORGLEFT
 10
0.0
 20
0.0
 30
0.0
  9
$PUCSORGRIGHT
 10
0.0
 20
0.0
 30
0.0
  9
$PUCSORGFRONT
 10
0.0
 20
0.0
 30
0.0
  9
$PUCSORGBACK
 10
0.0
 20
0.0
 30
0.0
  9
$USERI1
 70
     0
  9
$USERI2
 70
     0
  9
$USERI3
 70
     0
  9
$USERI4
 70
     0
  9
$USERI5
 70
     0
  9
$USERR1
 40
0.0
  9
$USERR2
 40
0.0
  9
$USERR3
 40
0.0
  9
$USERR4
 40
0.0
  9
$USERR5
 40
0.0
  9
$WORLDVIEW
 70
     1
  9
$SHADEDGE
 70
     3
  9
$SHADEDIF
 70
    70
  9
$TILEMODE
 70
     1
  9
$MAXACTVP
 70
    64
  9
$PINSBASE
 10
0.0
 20
0.0
 30
0.0
  9
$PLIMCHECK
 70
     0
  9
$PEXTMIN
 10
1.000000000000000E+20
 20
1.000000000000000E+20
 30
1.000000000000000E+20
  9
$PEXTMAX
 10
-1.000000000000000E+20
 20
-1.000000000000000E+20
 30
-1.000000000000000E+20
  9
$PLIMMIN
 10
0.0
 20
0.0
  9
$PLIMMAX
 10
12.0
 20
9.0
  9
$UNITMODE
 70
     0
  9
$VISRETAIN
 70
     1
  9
$PLINEGEN
 70
     0
  9
$PSLTSCALE
 70
     1
  9
$TREEDEPTH
 70
  3020
  9
$CMLSTYLE
  2
Standard
  9
$CMLJUST
 70
     0
  9
$CMLSCALE
 40
1.0
  9
$PROXYGRAPHICS
 70
     1
  9
$MEASUREMENT
 70
     0
  9
$CELWEIGHT
370
    -1
  9
$ENDCAPS
280
     0
  9
$JOINSTYLE
280
     0
  9
$LWDISPLAY
290
     1
  9
$INSUNITS
 70
     1
  9
$HYPERLINKBASE
  1

  9
$STYLESHEET
  1

  9
$XEDIT
290
     1
  9
$CEPSNTYPE
380
     0
  9
$PSTYLEMODE
290
     1
  9
$FINGERPRINTGUID
  2
{F2968A80-BC11-4468-A71F-D34717236C4B}
  9
$VERSIONGUID
  2
{FAEB1C32-E019-11D5-929B-00C0DF256EC4}
  9
$EXTNAMES
290
     1
  9
$PSVPSCALE
 40
0.0
  9
$OLESTARTUP
290
     0
  0
ENDSEC
  0
SECTION
  2
CLASSES
  0
CLASS
  1
ACDBDICTIONARYWDFLT
  2
AcDbDictionaryWithDefault
  3
ObjectDBX Classes
 90
        0
280
     0
281
     0
  0
CLASS
  1
VISUALSTYLE
  2
AcDbVisualStyle
  3
ObjectDBX Classes
 90
     4095
280
     0
281
     0
  0
CLASS
  1
ACDBPLACEHOLDER
  2
AcDbPlaceHolder
  3
ObjectDBX Classes
 90
        0
280
     0
281
     0
  0
CLASS
  1
LAYOUT
  2
AcDbLayout
  3
ObjectDBX Classes
 90
        0
280
     0
281
     0
  0
ENDSEC
  0
SECTION
  2
TABLES
  0
TABLE
  2
VPORT
  5
8
330
0
100
AcDbSymbolTable
 70
     1
  0
VPORT
  5
29
330
8
100
AcDbSymbolTableRecord
100
AcDbViewportTableRecord
  2
*Active
 70
     0
 10
0.0
 20
0.0
 11
1.0
 21
1.0
 12
0.0
 22
0.0
 13
0.0
 23
0.0
 14
0.5
 24
0.5
 15
0.5
 25
0.5
 16
0.0
 26
0.0
 36
1.0
 17
148.5194562573876
 27
209.9030023245337
 37
0.0
 40
428.5275211154838
 41
0.6810411595372315
 42
50.0
 43
0.0
 44
0.0
 50
0.0
 51
0.0
 71
     0
 72
   100
 73
     1
 74
     3
 75
     0
 76
     0
 77
     0
 78
     0
281
     0
 65
     1
110
0.0
120
0.0
130
0.0
111
1.0
121
0.0
131
0.0
112
0.0
122
1.0
132
0.0
 79
     0
146
0.0
  0
ENDTAB
  0
TABLE
  2
LTYPE
  5
5
330
0
100
AcDbSymbolTable
 70
    29
  0
LTYPE
  5
14
330
5
100
AcDbSymbolTableRecord
100
AcDbLinetypeTableRecord
  2
ByBlock
 70
     0
  3

 72
    65
 73
     0
 40
0.0
  0
LTYPE
  5
15
330
5
100
AcDbSymbolTableRecord
100
AcDbLinetypeTableRecord
  2
ByLayer
 70
     0
  3

 72
    65
 73
     0
 40
0.0
  0
LTYPE
  5
16
330
5
100
AcDbSymbolTableRecord
100
AcDbLinetypeTableRecord
  2
Continuous
 70
     0
  3
Solid line
 72
    65
 73
     0
 40
0.0
  0
LTYPE
  5
132
330
5
100
AcDbSymbolTableRecord
100
AcDbLinetypeTableRecord
  2
AI-Linetype-1
 70
     0
  3
Adobe Illustrator Linetype No. 1
 72
    65
 73
     4
 40
134.0026607766221
 49
83.75166147142986
 74
     0
 49
-16.75033310173076
 74
     0
 49
16.75033310173076
 74
     0
 49
-16.75033310173076
 74
     0
  0
LTYPE
  5
145
330
5
100
AcDbSymbolTableRecord
100
AcDbLinetypeTableRecord
  2
AI-Linetype-2
 70
     0
  3
Adobe Illustrator Linetype No. 2
 72
    65
 73
     4
 40
134.0026607766221
 49
83.75166147142986
 74
     0
 49
-16.75033310173076
 74
     0
 49
16.75033310173076
 74
     0
 49
-16.75033310173076
 74
     0
  0
LTYPE
  5
14E
330
5
100
AcDbSymbolTableRecord
100
AcDbLinetypeTableRecord
  2
AI-Linetype-3
 70
     0
  3
Adobe Illustrator Linetype No. 3
 72
    65
 73
     4
 40
134.0026607766221
 49
83.75166147142986
 74
     0
 49
-16.75033310173076
 74
     0
 49
16.75033310173076
 74
     0
 49
-16.75033310173076
 74
     0
  0
LTYPE
  5
157
330
5
100
AcDbSymbolTableRecord
100
AcDbLinetypeTableRecord
  2
AI-Linetype-4
 70
     0
  3
Adobe Illustrator Linetype No. 4
 72
    65
 73
     4
 40
134.0026607766221
 49
83.75166147142986
 74
     0
 49
-16.75033310173076
 74
     0
 49
16.75033310173076
 74
     0
 49
-16.75033310173076
 74
     0
  0
LTYPE
  5
1B4
330
5
100
AcDbSymbolTableRecord
100
AcDbLinetypeTableRecord
  2
AI-Linetype-5
 70
     0
  3
Adobe Illustrator Linetype No. 5
 72
    65
 73
     2
 40
100.5019986103845
 49
67.00133240692303
 74
     0
 49
-33.50066620346151
 74
     0
  0
LTYPE
  5
1BD
330
5
100
AcDbSymbolTableRecord
100
AcDbLinetypeTableRecord
  2
AI-Linetype-6
 70
     0
  3
Adobe Illustrator Linetype No. 6
 72
    65
 73
     2
 40
100.5019986103845
 49
67.00133240692303
 74
     0
 49
-33.50066620346151
 74
     0
  0
LTYPE
  5
1DE
330
5
100
AcDbSymbolTableRecord
100
AcDbLinetypeTableRecord
  2
AI-Linetype-7
 70
     0
  3
Adobe Illustrator Linetype No. 7
 72
    65
 73
     4
 40
268.0053215532442
 49
167.5033229428597
 74
     0
 49
-33.50066620346151
 74
     0
 49
33.50066620346151
 74
     0
 49
-33.50066620346151
 74
     0
  0
LTYPE
  5
1E4
330
5
100
AcDbSymbolTableRecord
100
AcDbLinetypeTableRecord
  2
AI-Linetype-8
 70
     0
  3
Adobe Illustrator Linetype No. 8
 72
    65
 73
     2
 40
100.5019986103845
 49
67.00133240692303
 74
     0
 49
-33.50066620346151
 74
     0
  0
LTYPE
  5
1ED
330
5
100
AcDbSymbolTableRecord
100
AcDbLinetypeTableRecord
  2
AI-Linetype-9
 70
     0
  3
Adobe Illustrator Linetype No. 9
 72
    65
 73
     2
 40
100.5019986103845
 49
67.00133240692303
 74
     0
 49
-33.50066620346151
 74
     0
  0
LTYPE
  5
1F6
330
5
100
AcDbSymbolTableRecord
100
AcDbLinetypeTableRecord
  2
AI-Linetype-10
 70
     0
  3
Adobe Illustrator Linetype No. 10
 72
    65
 73
     2
 40
100.5019986103845
 49
67.00133240692303
 74
     0
 49
-33.50066620346151
 74
     0
  0
LTYPE
  5
1FC
330
5
100
AcDbSymbolTableRecord
100
AcDbLinetypeTableRecord
  2
AI-Linetype-11
 70
     0
  3
Adobe Illustrator Linetype No. 11
 72
    65
 73
     2
 40
100.5019986103845
 49
67.00133240692303
 74
     0
 49
-33.50066620346151
 74
     0
  0
LTYPE
  5
205
330
5
100
AcDbSymbolTableRecord
100
AcDbLinetypeTableRecord
  2
AI-Linetype-12
 70
     0
  3
Adobe Illustrator Linetype No. 12
 72
    65
 73
     2
 40
100.5019986103845
 49
67.00133240692303
 74
     0
 49
-33.50066620346151
 74
     0
  0
LTYPE
  5
20E
330
5
100
AcDbSymbolTableRecord
100
AcDbLinetypeTableRecord
  2
AI-Linetype-13
 70
     0
  3
Adobe Illustrator Linetype No. 13
 72
    65
 73
     2
 40
100.5019986103845
 49
67.00133240692303
 74
     0
 49
-33.50066620346151
 74
     0
  0
LTYPE
  5
21F
330
5
100
AcDbSymbolTableRecord
100
AcDbLinetypeTableRecord
  2
AI-Linetype-14
 70
     0
  3
Adobe Illustrator Linetype No. 14
 72
    65
 73
     2
 40
100.5019986103845
 49
67.00133240692303
 74
     0
 49
-33.50066620346151
 74
     0
  0
LTYPE
  5
228
330
5
100
AcDbSymbolTableRecord
100
AcDbLinetypeTableRecord
  2
AI-Linetype-15
 70
     0
  3
Adobe Illustrator Linetype No. 15
 72
    65
 73
     2
 40
100.5019986103845
 49
67.00133240692303
 74
     0
 49
-33.50066620346151
 74
     0
  0
LTYPE
  5
231
330
5
100
AcDbSymbolTableRecord
100
AcDbLinetypeTableRecord
  2
AI-Linetype-16
 70
     0
  3
Adobe Illustrator Linetype No. 16
 72
    65
 73
     2
 40
100.5019986103845
 49
67.00133240692303
 74
     0
 49
-33.50066620346151
 74
     0
  0
LTYPE
  5
23A
330
5
100
AcDbSymbolTableRecord
100
AcDbLinetypeTableRecord
  2
AI-Linetype-17
 70
     0
  3
Adobe Illustrator Linetype No. 17
 72
    65
 73
     2
 40
100.5019986103845
 49
67.00133240692303
 74
     0
 49
-33.50066620346151
 74
     0
  0
LTYPE
  5
2A3
330
5
100
AcDbSymbolTableRecord
100
AcDbLinetypeTableRecord
  2
AI-Linetype-18
 70
     0
  3
Adobe Illustrator Linetype No. 18
 72
    65
 73
     2
 40
100.5019986103845
 49
67.00133240692303
 74
     0
 49
-33.50066620346151
 74
     0
  0
LTYPE
  5
2AC
330
5
100
AcDbSymbolTableRecord
100
AcDbLinetypeTableRecord
  2
AI-Linetype-19
 70
     0
  3
Adobe Illustrator Linetype No. 19
 72
    65
 73
     2
 40
100.5019986103845
 49
67.00133240692303
 74
     0
 49
-33.50066620346151
 74
     0
  0
LTYPE
  5
2B5
330
5
100
AcDbSymbolTableRecord
100
AcDbLinetypeTableRecord
  2
AI-Linetype-20
 70
     0
  3
Adobe Illustrator Linetype No. 20
 72
    65
 73
     2
 40
100.5019986103845
 49
67.00133240692303
 74
     0
 49
-33.50066620346151
 74
     0
  0
LTYPE
  5
2BE
330
5
100
AcDbSymbolTableRecord
100
AcDbLinetypeTableRecord
  2
AI-Linetype-21
 70
     0
  3
Adobe Illustrator Linetype No. 21
 72
    65
 73
     2
 40
100.5019986103845
 49
67.00133240692303
 74
     0
 49
-33.50066620346151
 74
     0
  0
LTYPE
  5
2C7
330
5
100
AcDbSymbolTableRecord
100
AcDbLinetypeTableRecord
  2
AI-Linetype-22
 70
     0
  3
Adobe Illustrator Linetype No. 22
 72
    65
 73
     4
 40
268.0053215532442
 49
167.5033229428597
 74
     0
 49
-33.50066620346151
 74
     0
 49
33.50066620346151
 74
     0
 49
-33.50066620346151
 74
     0
  0
LTYPE
  5
2D0
330
5
100
AcDbSymbolTableRecord
100
AcDbLinetypeTableRecord
  2
AI-Linetype-23
 70
     0
  3
Adobe Illustrator Linetype No. 23
 72
    65
 73
     2
 40
100.5019986103845
 49
67.00133240692303
 74
     0
 49
-33.50066620346151
 74
     0
  0
LTYPE
  5
2D6
330
5
100
AcDbSymbolTableRecord
100
AcDbLinetypeTableRecord
  2
AI-Linetype-24
 70
     0
  3
Adobe Illustrator Linetype No. 24
 72
    65
 73
     2
 40
100.5019986103845
 49
67.00133240692303
 74
     0
 49
-33.50066620346151
 74
     0
  0
LTYPE
  5
2DF
330
5
100
AcDbSymbolTableRecord
100
AcDbLinetypeTableRecord
  2
AI-Linetype-25
 70
     0
  3
Adobe Illustrator Linetype No. 25
 72
    65
 73
     2
 40
100.5019986103845
 49
67.00133240692303
 74
     0
 49
-33.50066620346151
 74
     0
  0
LTYPE
  5
2E8
330
5
100
AcDbSymbolTableRecord
100
AcDbLinetypeTableRecord
  2
AI-Linetype-26
 70
     0
  3
Adobe Illustrator Linetype No. 26
 72
    65
 73
     2
 40
100.5019986103845
 49
67.00133240692303
 74
     0
 49
-33.50066620346151
 74
     0
  0
LTYPE
  5
3C1
330
5
100
AcDbSymbolTableRecord
100
AcDbLinetypeTableRecord
  2
AI-Linetype-27
 70
     0
  3
Adobe Illustrator Linetype No. 27
 72
    65
 73
     4
 40
536.0106431064885
 49
335.0066458857194
 74
     0
 49
-67.00133240692303
 74
     0
 49
67.00133240692303
 74
     0
 49
-67.00133240692303
 74
     0
  0
LTYPE
  5
3CA
330
5
100
AcDbSymbolTableRecord
100
AcDbLinetypeTableRecord
  2
AI-Linetype-28
 70
     0
  3
Adobe Illustrator Linetype No. 28
 72
    65
 73
     4
 40
134.0026607766221
 49
83.75166147142986
 74
     0
 49
-16.75033310173076
 74
     0
 49
16.75033310173076
 74
     0
 49
-16.75033310173076
 74
     0
  0
ENDTAB
  0
TABLE
  2
LAYER
  5
2
330
0
100
AcDbSymbolTable
 70
     2
  0
LAYER
  5
10
330
2
100
AcDbSymbolTableRecord
100
AcDbLayerTableRecord
  2
0
 70
     0
 62
     7
  6
Continuous
370
    -3
390
F
  0
LAYER
  5
3B
330
2
100
AcDbSymbolTableRecord
100
AcDbLayerTableRecord
  2
\U+5716\U+5C64 1
 70
     0
 62
     7
  6
Continuous
370
    -3
390
F
  0
ENDTAB
  0
TABLE
  2
STYLE
  5
3
330
0
100
AcDbSymbolTable
 70
     1
  0
STYLE
  5
11
330
3
100
AcDbSymbolTableRecord
100
AcDbTextStyleTableRecord
  2
Standard
 70
     0
 40
0.0
 41
1.0
 50
0.0
 71
     0
 42
0.2
  3
txt
  4

  0
ENDTAB
  0
TABLE
  2
VIEW
  5
6
330
0
100
AcDbSymbolTable
 70
     0
  0
ENDTAB
  0
TABLE
  2
UCS
  5
7
330
0
100
AcDbSymbolTable
 70
     0
  0
ENDTAB
  0
TABLE
  2
APPID
  5
9
330
0
100
AcDbSymbolTable
 70
     1
  0
APPID
  5
12
330
9
100
AcDbSymbolTableRecord
100
AcDbRegAppTableRecord
  2
ACAD
 70
     0
  0
ENDTAB
  0
TABLE
  2
DIMSTYLE
  5
A
330
0
100
AcDbSymbolTable
 70
     1
100
AcDbDimStyleTable
  0
DIMSTYLE
105
27
330
A
100
AcDbSymbolTableRecord
100
AcDbDimStyleTableRecord
  2
Standard
 70
     0
340
11
  0
ENDTAB
  0
TABLE
  2
BLOCK_RECORD
  5
1
330
0
100
AcDbSymbolTable
 70
   187
  0
BLOCK_RECORD
  5
1F
330
1
100
AcDbSymbolTableRecord
100
AcDbBlockTableRecord
  2
*Model_Space
340
22
  0
BLOCK_RECORD
  5
1B
330
1
100
AcDbSymbolTableRecord
100
AcDbBlockTableRecord
  2
*Paper_Space
340
1E
  0
BLOCK_RECORD
  5
23
330
1
100
AcDbSymbolTableRecord
100
AcDbBlockTableRecord
  2
*Paper_Space0
340
26
  0
BLOCK_RECORD
  5
3C
330
1
100
AcDbSymbolTableRecord
100
AcDbBlockTableRecord
  2
block 2
340
0
102
{BLKREFS
331
3D
102
}
  0
BLOCK_RECORD
  5
40
330
1
100
AcDbSymbolTableRecord
100
AcDbBlockTableRecord
  2
block 3
340
0
102
{BLKREFS
331
41
102
}
  0
BLOCK_RECORD
  5
45
330
1
100
AcDbSymbolTableRecord
100
AcDbBlockTableRecord
  2
block 4
340
0
102
{BLKREFS
331
46
102
}
  0
BLOCK_RECORD
  5
4A
330
1
100
AcDbSymbolTableRecord
100
AcDbBlockTableRecord
  2
block 5
340
0
102
{BLKREFS
331
4B
102
}
  0
BLOCK_RECORD
  5
4F
330
1
100
AcDbSymbolTableRecord
100
AcDbBlockTableRecord
  2
block 6
340
0
102
{BLKREFS
331
50
102
}
  0
BLOCK_RECORD
  5
54
330
1
100
AcDbSymbolTableRecord
100
AcDbBlockTableRecord
  2
block 7
340
0
102
{BLKREFS
331
55
102
}
  0
BLOCK_RECORD
  5
5F
330
1
100
AcDbSymbolTableRecord
100
AcDbBlockTableRecord
  2
block 8
340
0
102
{BLKREFS
331
60
102
}
  0
BLOCK_RECORD
  5
6A
330
1
100
AcDbSymbolTableRecord
100
AcDbBlockTableRecord
  2
block 9
340
0
102
{BLKREFS
331
6B
102
}
  0
BLOCK_RECORD
  5
72
330
1
100
AcDbSymbolTableRecord
100
AcDbBlockTableRecord
  2
block 10
340
0
102
{BLKREFS
331
73
102
}
  0
BLOCK_RECORD
  5
7A
330
1
100
AcDbSymbolTableRecord
100
AcDbBlockTableRecord
  2
block 11
340
0
102
{BLKREFS
331
7B
102
}
  0
BLOCK_RECORD
  5
82
330
1
100
AcDbSymbolTableRecord
100
AcDbBlockTableRecord
  2
block 12
340
0
102
{BLKREFS
331
83
102
}
  0
BLOCK_RECORD
  5
87
330
1
100
AcDbSymbolTableRecord
100
AcDbBlockTableRecord
  2
block 13
340
0
102
{BLKREFS
331
88
102
}
  0
BLOCK_RECORD
  5
8F
330
1
100
AcDbSymbolTableRecord
100
AcDbBlockTableRecord
  2
block 14
340
0
102
{BLKREFS
331
90
102
}
  0
BLOCK_RECORD
  5
97
330
1
100
AcDbSymbolTableRecord
100
AcDbBlockTableRecord
  2
block 15
340
0
102
{BLKREFS
331
98
102
}
  0
BLOCK_RECORD
  5
9F
330
1
100
AcDbSymbolTableRecord
100
AcDbBlockTableRecord
  2
block 16
340
0
102
{BLKREFS
331
A0
102
}
  0
BLOCK_RECORD
  5
A4
330
1
100
AcDbSymbolTableRecord
100
AcDbBlockTableRecord
  2
block 17
340
0
102
{BLKREFS
331
A5
102
}
  0
BLOCK_RECORD
  5
A9
330
1
100
AcDbSymbolTableRecord
100
AcDbBlockTableRecord
  2
block 18
340
0
102
{BLKREFS
331
AA
102
}
  0
BLOCK_RECORD
  5
AE
330
1
100
AcDbSymbolTableRecord
100
AcDbBlockTableRecord
  2
block 19
340
0
102
{BLKREFS
331
AF
102
}
  0
BLOCK_RECORD
  5
B6
330
1
100
AcDbSymbolTableRecord
100
AcDbBlockTableRecord
  2
block 20
340
0
102
{BLKREFS
331
B7
102
}
  0
BLOCK_RECORD
  5
BE
330
1
100
AcDbSymbolTableRecord
100
AcDbBlockTableRecord
  2
block 21
340
0
102
{BLKREFS
331
BF
102
}
  0
BLOCK_RECORD
  5
C6
330
1
100
AcDbSymbolTableRecord
100
AcDbBlockTableRecord
  2
block 22
340
0
102
{BLKREFS
331
C7
102
}
  0
BLOCK_RECORD
  5
CB
330
1
100
AcDbSymbolTableRecord
100
AcDbBlockTableRecord
  2
block 23
340
0
102
{BLKREFS
331
CC
102
}
  0
BLOCK_RECORD
  5
D3
330
1
100
AcDbSymbolTableRecord
100
AcDbBlockTableRecord
  2
block 24
340
0
102
{BLKREFS
331
D4
102
}
  0
BLOCK_RECORD
  5
D8
330
1
100
AcDbSymbolTableRecord
100
AcDbBlockTableRecord
  2
block 25
340
0
102
{BLKREFS
331
D9
102
}
  0
BLOCK_RECORD
  5
DD
330
1
100
AcDbSymbolTableRecord
100
AcDbBlockTableRecord
  2
block 26
340
0
102
{BLKREFS
331
DE
102
}
  0
BLOCK_RECORD
  5
E2
330
1
100
AcDbSymbolTableRecord
100
AcDbBlockTableRecord
  2
block 27
340
0
102
{BLKREFS
331
E3
102
}
  0
BLOCK_RECORD
  5
E7
330
1
100
AcDbSymbolTableRecord
100
AcDbBlockTableRecord
  2
block 28
340
0
102
{BLKREFS
331
E8
102
}
  0
BLOCK_RECORD
  5
EC
330
1
100
AcDbSymbolTableRecord
100
AcDbBlockTableRecord
  2
block 29
340
0
102
{BLKREFS
331
ED
102
}
  0
BLOCK_RECORD
  5
F4
330
1
100
AcDbSymbolTableRecord
100
AcDbBlockTableRecord
  2
block 30
340
0
102
{BLKREFS
331
F5
102
}
  0
BLOCK_RECORD
  5
FC
330
1
100
AcDbSymbolTableRecord
100
AcDbBlockTableRecord
  2
block 31
340
0
102
{BLKREFS
331
FD
102
}
  0
BLOCK_RECORD
  5
104
330
1
100
AcDbSymbolTableRecord
100
AcDbBlockTableRecord
  2
block 32
340
0
102
{BLKREFS
331
105
102
}
  0
BLOCK_RECORD
  5
109
330
1
100
AcDbSymbolTableRecord
100
AcDbBlockTableRecord
  2
block 33
340
0
102
{BLKREFS
331
10A
102
}
  0
BLOCK_RECORD
  5
111
330
1
100
AcDbSymbolTableRecord
100
AcDbBlockTableRecord
  2
block 34
340
0
102
{BLKREFS
331
112
102
}
  0
BLOCK_RECORD
  5
116
330
1
100
AcDbSymbolTableRecord
100
AcDbBlockTableRecord
  2
block 35
340
0
102
{BLKREFS
331
117
102
}
  0
BLOCK_RECORD
  5
11B
330
1
100
AcDbSymbolTableRecord
100
AcDbBlockTableRecord
  2
block 36
340
0
102
{BLKREFS
331
11C
102
}
  0
BLOCK_RECORD
  5
120
330
1
100
AcDbSymbolTableRecord
100
AcDbBlockTableRecord
  2
block 37
340
0
102
{BLKREFS
331
121
102
}
  0
BLOCK_RECORD
  5
125
330
1
100
AcDbSymbolTableRecord
100
AcDbBlockTableRecord
  2
block 38
340
0
102
{BLKREFS
331
126
102
}
  0
BLOCK_RECORD
  5
12A
330
1
100
AcDbSymbolTableRecord
100
AcDbBlockTableRecord
  2
block 39
340
0
102
{BLKREFS
331
12B
102
}
  0
BLOCK_RECORD
  5
133
330
1
100
AcDbSymbolTableRecord
100
AcDbBlockTableRecord
  2
block 40
340
0
102
{BLKREFS
331
134
102
}
  0
BLOCK_RECORD
  5
138
330
1
100
AcDbSymbolTableRecord
100
AcDbBlockTableRecord
  2
block 41
340
0
102
{BLKREFS
331
139
102
}
  0
BLOCK_RECORD
  5
13D
330
1
100
AcDbSymbolTableRecord
100
AcDbBlockTableRecord
  2
block 42
340
0
102
{BLKREFS
331
13E
102
}
  0
BLOCK_RECORD
  5
146
330
1
100
AcDbSymbolTableRecord
100
AcDbBlockTableRecord
  2
block 43
340
0
102
{BLKREFS
331
147
102
}
  0
BLOCK_RECORD
  5
14F
330
1
100
AcDbSymbolTableRecord
100
AcDbBlockTableRecord
  2
block 44
340
0
102
{BLKREFS
331
150
102
}
  0
BLOCK_RECORD
  5
158
330
1
100
AcDbSymbolTableRecord
100
AcDbBlockTableRecord
  2
block 45
340
0
102
{BLKREFS
331
159
102
}
  0
BLOCK_RECORD
  5
160
330
1
100
AcDbSymbolTableRecord
100
AcDbBlockTableRecord
  2
block 46
340
0
102
{BLKREFS
331
161
102
}
  0
BLOCK_RECORD
  5
165
330
1
100
AcDbSymbolTableRecord
100
AcDbBlockTableRecord
  2
block 47
340
0
102
{BLKREFS
331
166
102
}
  0
BLOCK_RECORD
  5
16D
330
1
100
AcDbSymbolTableRecord
100
AcDbBlockTableRecord
  2
block 48
340
0
102
{BLKREFS
331
16E
102
}
  0
BLOCK_RECORD
  5
172
330
1
100
AcDbSymbolTableRecord
100
AcDbBlockTableRecord
  2
block 49
340
0
102
{BLKREFS
331
173
102
}
  0
BLOCK_RECORD
  5
17A
330
1
100
AcDbSymbolTableRecord
100
AcDbBlockTableRecord
  2
block 50
340
0
102
{BLKREFS
331
17B
102
}
  0
BLOCK_RECORD
  5
17F
330
1
100
AcDbSymbolTableRecord
100
AcDbBlockTableRecord
  2
block 51
340
0
102
{BLKREFS
331
180
102
}
  0
BLOCK_RECORD
  5
187
330
1
100
AcDbSymbolTableRecord
100
AcDbBlockTableRecord
  2
block 52
340
0
102
{BLKREFS
331
188
102
}
  0
BLOCK_RECORD
  5
18C
330
1
100
AcDbSymbolTableRecord
100
AcDbBlockTableRecord
  2
block 53
340
0
102
{BLKREFS
331
18D
102
}
  0
BLOCK_RECORD
  5
194
330
1
100
AcDbSymbolTableRecord
100
AcDbBlockTableRecord
  2
block 54
340
0
102
{BLKREFS
331
195
102
}
  0
BLOCK_RECORD
  5
19C
330
1
100
AcDbSymbolTableRecord
100
AcDbBlockTableRecord
  2
block 55
340
0
102
{BLKREFS
331
19D
102
}
  0
BLOCK_RECORD
  5
1A4
330
1
100
AcDbSymbolTableRecord
100
AcDbBlockTableRecord
  2
block 56
340
0
102
{BLKREFS
331
1A5
102
}
  0
BLOCK_RECORD
  5
1AC
330
1
100
AcDbSymbolTableRecord
100
AcDbBlockTableRecord
  2
block 57
340
0
102
{BLKREFS
331
1AD
102
}
  0
BLOCK_RECORD
  5
1B5
330
1
100
AcDbSymbolTableRecord
100
AcDbBlockTableRecord
  2
block 58
340
0
102
{BLKREFS
331
1B6
102
}
  0
BLOCK_RECORD
  5
1BE
330
1
100
AcDbSymbolTableRecord
100
AcDbBlockTableRecord
  2
block 59
340
0
102
{BLKREFS
331
1BF
102
}
  0
BLOCK_RECORD
  5
1C6
330
1
100
AcDbSymbolTableRecord
100
AcDbBlockTableRecord
  2
block 60
340
0
102
{BLKREFS
331
1C7
102
}
  0
BLOCK_RECORD
  5
1CE
330
1
100
AcDbSymbolTableRecord
100
AcDbBlockTableRecord
  2
block 61
340
0
102
{BLKREFS
331
1CF
102
}
  0
BLOCK_RECORD
  5
1D6
330
1
100
AcDbSymbolTableRecord
100
AcDbBlockTableRecord
  2
block 62
340
0
102
{BLKREFS
331
1D7
102
}
  0
BLOCK_RECORD
  5
1DF
330
1
100
AcDbSymbolTableRecord
100
AcDbBlockTableRecord
  2
block 63
340
0
102
{BLKREFS
331
1E0
102
}
  0
BLOCK_RECORD
  5
1E5
330
1
100
AcDbSymbolTableRecord
100
AcDbBlockTableRecord
  2
block 64
340
0
102
{BLKREFS
331
1E6
102
}
  0
BLOCK_RECORD
  5
1EE
330
1
100
AcDbSymbolTableRecord
100
AcDbBlockTableRecord
  2
block 65
340
0
102
{BLKREFS
331
1EF
102
}
  0
BLOCK_RECORD
  5
1F7
330
1
100
AcDbSymbolTableRecord
100
AcDbBlockTableRecord
  2
block 66
340
0
102
{BLKREFS
331
1F8
102
}
  0
BLOCK_RECORD
  5
1FD
330
1
100
AcDbSymbolTableRecord
100
AcDbBlockTableRecord
  2
block 67
340
0
102
{BLKREFS
331
1FE
102
}
  0
BLOCK_RECORD
  5
206
330
1
100
AcDbSymbolTableRecord
100
AcDbBlockTableRecord
  2
block 68
340
0
102
{BLKREFS
331
207
102
}
  0
BLOCK_RECORD
  5
20F
330
1
100
AcDbSymbolTableRecord
100
AcDbBlockTableRecord
  2
block 69
340
0
102
{BLKREFS
331
210
102
}
  0
BLOCK_RECORD
  5
217
330
1
100
AcDbSymbolTableRecord
100
AcDbBlockTableRecord
  2
block 70
340
0
102
{BLKREFS
331
218
102
}
  0
BLOCK_RECORD
  5
220
330
1
100
AcDbSymbolTableRecord
100
AcDbBlockTableRecord
  2
block 71
340
0
102
{BLKREFS
331
221
102
}
  0
BLOCK_RECORD
  5
229
330
1
100
AcDbSymbolTableRecord
100
AcDbBlockTableRecord
  2
block 72
340
0
102
{BLKREFS
331
22A
102
}
  0
BLOCK_RECORD
  5
232
330
1
100
AcDbSymbolTableRecord
100
AcDbBlockTableRecord
  2
block 73
340
0
102
{BLKREFS
331
233
102
}
  0
BLOCK_RECORD
  5
23B
330
1
100
AcDbSymbolTableRecord
100
AcDbBlockTableRecord
  2
block 74
340
0
102
{BLKREFS
331
23C
102
}
  0
BLOCK_RECORD
  5
23F
330
1
100
AcDbSymbolTableRecord
100
AcDbBlockTableRecord
  2
block 75
340
0
102
{BLKREFS
331
240
102
}
  0
BLOCK_RECORD
  5
243
330
1
100
AcDbSymbolTableRecord
100
AcDbBlockTableRecord
  2
block 76
340
0
102
{BLKREFS
331
244
102
}
  0
BLOCK_RECORD
  5
24B
330
1
100
AcDbSymbolTableRecord
100
AcDbBlockTableRecord
  2
block 77
340
0
102
{BLKREFS
331
24C
102
}
  0
BLOCK_RECORD
  5
253
330
1
100
AcDbSymbolTableRecord
100
AcDbBlockTableRecord
  2
block 78
340
0
102
{BLKREFS
331
254
102
}
  0
BLOCK_RECORD
  5
25B
330
1
100
AcDbSymbolTableRecord
100
AcDbBlockTableRecord
  2
block 79
340
0
102
{BLKREFS
331
25C
102
}
  0
BLOCK_RECORD
  5
266
330
1
100
AcDbSymbolTableRecord
100
AcDbBlockTableRecord
  2
block 80
340
0
102
{BLKREFS
331
267
102
}
  0
BLOCK_RECORD
  5
271
330
1
100
AcDbSymbolTableRecord
100
AcDbBlockTableRecord
  2
block 81
340
0
102
{BLKREFS
331
272
102
}
  0
BLOCK_RECORD
  5
276
330
1
100
AcDbSymbolTableRecord
100
AcDbBlockTableRecord
  2
block 82
340
0
102
{BLKREFS
331
277
102
}
  0
BLOCK_RECORD
  5
27E
330
1
100
AcDbSymbolTableRecord
100
AcDbBlockTableRecord
  2
block 83
340
0
102
{BLKREFS
331
27F
102
}
  0
BLOCK_RECORD
  5
286
330
1
100
AcDbSymbolTableRecord
100
AcDbBlockTableRecord
  2
block 84
340
0
102
{BLKREFS
331
287
102
}
  0
BLOCK_RECORD
  5
28E
330
1
100
AcDbSymbolTableRecord
100
AcDbBlockTableRecord
  2
block 85
340
0
102
{BLKREFS
331
28F
102
}
  0
BLOCK_RECORD
  5
296
330
1
100
AcDbSymbolTableRecord
100
AcDbBlockTableRecord
  2
block 86
340
0
102
{BLKREFS
331
297
102
}
  0
BLOCK_RECORD
  5
29E
330
1
100
AcDbSymbolTableRecord
100
AcDbBlockTableRecord
  2
block 87
340
0
102
{BLKREFS
331
29F
102
}
  0
BLOCK_RECORD
  5
2A4
330
1
100
AcDbSymbolTableRecord
100
AcDbBlockTableRecord
  2
block 88
340
0
102
{BLKREFS
331
2A5
102
}
  0
BLOCK_RECORD
  5
2AD
330
1
100
AcDbSymbolTableRecord
100
AcDbBlockTableRecord
  2
block 89
340
0
102
{BLKREFS
331
2AE
102
}
  0
BLOCK_RECORD
  5
2B6
330
1
100
AcDbSymbolTableRecord
100
AcDbBlockTableRecord
  2
block 90
340
0
102
{BLKREFS
331
2B7
102
}
  0
BLOCK_RECORD
  5
2BF
330
1
100
AcDbSymbolTableRecord
100
AcDbBlockTableRecord
  2
block 91
340
0
102
{BLKREFS
331
2C0
102
}
  0
BLOCK_RECORD
  5
2C8
330
1
100
AcDbSymbolTableRecord
100
AcDbBlockTableRecord
  2
block 92
340
0
102
{BLKREFS
331
2C9
102
}
  0
BLOCK_RECORD
  5
2D1
330
1
100
AcDbSymbolTableRecord
100
AcDbBlockTableRecord
  2
block 93
340
0
102
{BLKREFS
331
2D2
102
}
  0
BLOCK_RECORD
  5
2D7
330
1
100
AcDbSymbolTableRecord
100
AcDbBlockTableRecord
  2
block 94
340
0
102
{BLKREFS
331
2D8
102
}
  0
BLOCK_RECORD
  5
2E0
330
1
100
AcDbSymbolTableRecord
100
AcDbBlockTableRecord
  2
block 95
340
0
102
{BLKREFS
331
2E1
102
}
  0
BLOCK_RECORD
  5
2E9
330
1
100
AcDbSymbolTableRecord
100
AcDbBlockTableRecord
  2
block 96
340
0
102
{BLKREFS
331
2EA
102
}
  0
BLOCK_RECORD
  5
2F1
330
1
100
AcDbSymbolTableRecord
100
AcDbBlockTableRecord
  2
block 97
340
0
102
{BLKREFS
331
2F2
102
}
  0
BLOCK_RECORD
  5
2F9
330
1
100
AcDbSymbolTableRecord
100
AcDbBlockTableRecord
  2
block 98
340
0
102
{BLKREFS
331
2FA
102
}
  0
BLOCK_RECORD
  5
2FD
330
1
100
AcDbSymbolTableRecord
100
AcDbBlockTableRecord
  2
block 99
340
0
102
{BLKREFS
331
2FE
102
}
  0
BLOCK_RECORD
  5
301
330
1
100
AcDbSymbolTableRecord
100
AcDbBlockTableRecord
  2
block 100
340
0
102
{BLKREFS
331
302
102
}
  0
BLOCK_RECORD
  5
309
330
1
100
AcDbSymbolTableRecord
100
AcDbBlockTableRecord
  2
block 101
340
0
102
{BLKREFS
331
30A
102
}
  0
BLOCK_RECORD
  5
311
330
1
100
AcDbSymbolTableRecord
100
AcDbBlockTableRecord
  2
block 102
340
0
102
{BLKREFS
331
312
102
}
  0
BLOCK_RECORD
  5
316
330
1
100
AcDbSymbolTableRecord
100
AcDbBlockTableRecord
  2
block 103
340
0
102
{BLKREFS
331
317
102
}
  0
BLOCK_RECORD
  5
321
330
1
100
AcDbSymbolTableRecord
100
AcDbBlockTableRecord
  2
block 104
340
0
102
{BLKREFS
331
322
102
}
  0
BLOCK_RECORD
  5
32C
330
1
100
AcDbSymbolTableRecord
100
AcDbBlockTableRecord
  2
block 105
340
0
102
{BLKREFS
331
32D
102
}
  0
BLOCK_RECORD
  5
331
330
1
100
AcDbSymbolTableRecord
100
AcDbBlockTableRecord
  2
block 106
340
0
102
{BLKREFS
331
332
102
}
  0
BLOCK_RECORD
  5
339
330
1
100
AcDbSymbolTableRecord
100
AcDbBlockTableRecord
  2
block 107
340
0
102
{BLKREFS
331
33A
102
}
  0
BLOCK_RECORD
  5
341
330
1
100
AcDbSymbolTableRecord
100
AcDbBlockTableRecord
  2
block 108
340
0
102
{BLKREFS
331
342
102
}
  0
BLOCK_RECORD
  5
349
330
1
100
AcDbSymbolTableRecord
100
AcDbBlockTableRecord
  2
block 109
340
0
102
{BLKREFS
331
34A
102
}
  0
BLOCK_RECORD
  5
351
330
1
100
AcDbSymbolTableRecord
100
AcDbBlockTableRecord
  2
block 110
340
0
102
{BLKREFS
331
352
102
}
  0
BLOCK_RECORD
  5
359
330
1
100
AcDbSymbolTableRecord
100
AcDbBlockTableRecord
  2
block 111
340
0
102
{BLKREFS
331
35A
102
}
  0
BLOCK_RECORD
  5
35D
330
1
100
AcDbSymbolTableRecord
100
AcDbBlockTableRecord
  2
block 112
340
0
102
{BLKREFS
331
35E
102
}
  0
BLOCK_RECORD
  5
361
330
1
100
AcDbSymbolTableRecord
100
AcDbBlockTableRecord
  2
block 113
340
0
102
{BLKREFS
331
362
102
}
  0
BLOCK_RECORD
  5
369
330
1
100
AcDbSymbolTableRecord
100
AcDbBlockTableRecord
  2
block 114
340
0
102
{BLKREFS
331
36A
102
}
  0
BLOCK_RECORD
  5
371
330
1
100
AcDbSymbolTableRecord
100
AcDbBlockTableRecord
  2
block 115
340
0
102
{BLKREFS
331
372
102
}
  0
BLOCK_RECORD
  5
379
330
1
100
AcDbSymbolTableRecord
100
AcDbBlockTableRecord
  2
block 116
340
0
102
{BLKREFS
331
37A
102
}
  0
BLOCK_RECORD
  5
384
330
1
100
AcDbSymbolTableRecord
100
AcDbBlockTableRecord
  2
block 117
340
0
102
{BLKREFS
331
385
102
}
  0
BLOCK_RECORD
  5
38F
330
1
100
AcDbSymbolTableRecord
100
AcDbBlockTableRecord
  2
block 118
340
0
102
{BLKREFS
331
390
102
}
  0
BLOCK_RECORD
  5
394
330
1
100
AcDbSymbolTableRecord
100
AcDbBlockTableRecord
  2
block 119
340
0
102
{BLKREFS
331
395
102
}
  0
BLOCK_RECORD
  5
39C
330
1
100
AcDbSymbolTableRecord
100
AcDbBlockTableRecord
  2
block 120
340
0
102
{BLKREFS
331
39D
102
}
  0
BLOCK_RECORD
  5
3A4
330
1
100
AcDbSymbolTableRecord
100
AcDbBlockTableRecord
  2
block 121
340
0
102
{BLKREFS
331
3A5
102
}
  0
BLOCK_RECORD
  5
3AC
330
1
100
AcDbSymbolTableRecord
100
AcDbBlockTableRecord
  2
block 122
340
0
102
{BLKREFS
331
3AD
102
}
  0
BLOCK_RECORD
  5
3B1
330
1
100
AcDbSymbolTableRecord
100
AcDbBlockTableRecord
  2
block 123
340
0
102
{BLKREFS
331
3B2
102
}
  0
BLOCK_RECORD
  5
3B9
330
1
100
AcDbSymbolTableRecord
100
AcDbBlockTableRecord
  2
block 124
340
0
102
{BLKREFS
331
3BA
102
}
  0
BLOCK_RECORD
  5
3C2
330
1
100
AcDbSymbolTableRecord
100
AcDbBlockTableRecord
  2
block 125
340
0
102
{BLKREFS
331
3C3
102
}
  0
BLOCK_RECORD
  5
3CB
330
1
100
AcDbSymbolTableRecord
100
AcDbBlockTableRecord
  2
block 126
340
0
102
{BLKREFS
331
3CC
102
}
  0
BLOCK_RECORD
  5
3D3
330
1
100
AcDbSymbolTableRecord
100
AcDbBlockTableRecord
  2
block 127
340
0
102
{BLKREFS
331
3D4
102
}
  0
BLOCK_RECORD
  5
3DB
330
1
100
AcDbSymbolTableRecord
100
AcDbBlockTableRecord
  2
block 128
340
0
102
{BLKREFS
331
3DC
102
}
  0
BLOCK_RECORD
  5
3E3
330
1
100
AcDbSymbolTableRecord
100
AcDbBlockTableRecord
  2
block 129
340
0
102
{BLKREFS
331
3E4
102
}
  0
BLOCK_RECORD
  5
3E8
330
1
100
AcDbSymbolTableRecord
100
AcDbBlockTableRecord
  2
block 130
340
0
102
{BLKREFS
331
3E9
102
}
  0
BLOCK_RECORD
  5
3ED
330
1
100
AcDbSymbolTableRecord
100
AcDbBlockTableRecord
  2
block 131
340
0
102
{BLKREFS
331
3EE
102
}
  0
BLOCK_RECORD
  5
3F5
330
1
100
AcDbSymbolTableRecord
100
AcDbBlockTableRecord
  2
block 132
340
0
102
{BLKREFS
331
3F6
102
}
  0
BLOCK_RECORD
  5
3FA
330
1
100
AcDbSymbolTableRecord
100
AcDbBlockTableRecord
  2
block 133
340
0
102
{BLKREFS
331
3FB
102
}
  0
BLOCK_RECORD
  5
43A
330
1
100
AcDbSymbolTableRecord
100
AcDbBlockTableRecord
  2
block 134
340
0
102
{BLKREFS
331
43B
102
}
  0
BLOCK_RECORD
  5
43E
330
1
100
AcDbSymbolTableRecord
100
AcDbBlockTableRecord
  2
block 135
340
0
102
{BLKREFS
331
43F
102
}
  0
BLOCK_RECORD
  5
442
330
1
100
AcDbSymbolTableRecord
100
AcDbBlockTableRecord
  2
block 136
340
0
102
{BLKREFS
331
443
102
}
  0
BLOCK_RECORD
  5
44A
330
1
100
AcDbSymbolTableRecord
100
AcDbBlockTableRecord
  2
block 137
340
0
102
{BLKREFS
331
44B
102
}
  0
BLOCK_RECORD
  5
452
330
1
100
AcDbSymbolTableRecord
100
AcDbBlockTableRecord
  2
block 138
340
0
102
{BLKREFS
331
453
102
}
  0
BLOCK_RECORD
  5
45A
330
1
100
AcDbSymbolTableRecord
100
AcDbBlockTableRecord
  2
block 139
340
0
102
{BLKREFS
331
45B
102
}
  0
BLOCK_RECORD
  5
465
330
1
100
AcDbSymbolTableRecord
100
AcDbBlockTableRecord
  2
block 140
340
0
102
{BLKREFS
331
466
102
}
  0
BLOCK_RECORD
  5
470
330
1
100
AcDbSymbolTableRecord
100
AcDbBlockTableRecord
  2
block 141
340
0
102
{BLKREFS
331
471
102
}
  0
BLOCK_RECORD
  5
475
330
1
100
AcDbSymbolTableRecord
100
AcDbBlockTableRecord
  2
block 142
340
0
102
{BLKREFS
331
476
102
}
  0
BLOCK_RECORD
  5
47D
330
1
100
AcDbSymbolTableRecord
100
AcDbBlockTableRecord
  2
block 143
340
0
102
{BLKREFS
331
47E
102
}
  0
BLOCK_RECORD
  5
485
330
1
100
AcDbSymbolTableRecord
100
AcDbBlockTableRecord
  2
block 144
340
0
102
{BLKREFS
331
486
102
}
  0
BLOCK_RECORD
  5
48D
330
1
100
AcDbSymbolTableRecord
100
AcDbBlockTableRecord
  2
block 145
340
0
102
{BLKREFS
331
48E
102
}
  0
BLOCK_RECORD
  5
491
330
1
100
AcDbSymbolTableRecord
100
AcDbBlockTableRecord
  2
block 146
340
0
102
{BLKREFS
331
492
102
}
  0
BLOCK_RECORD
  5
495
330
1
100
AcDbSymbolTableRecord
100
AcDbBlockTableRecord
  2
block 147
340
0
102
{BLKREFS
331
496
102
}
  0
BLOCK_RECORD
  5
49D
330
1
100
AcDbSymbolTableRecord
100
AcDbBlockTableRecord
  2
block 148
340
0
102
{BLKREFS
331
49E
102
}
  0
BLOCK_RECORD
  5
4A5
330
1
100
AcDbSymbolTableRecord
100
AcDbBlockTableRecord
  2
block 149
340
0
102
{BLKREFS
331
4A6
102
}
  0
BLOCK_RECORD
  5
4AD
330
1
100
AcDbSymbolTableRecord
100
AcDbBlockTableRecord
  2
block 150
340
0
102
{BLKREFS
331
4AE
102
}
  0
BLOCK_RECORD
  5
4B5
330
1
100
AcDbSymbolTableRecord
100
AcDbBlockTableRecord
  2
block 151
340
0
102
{BLKREFS
331
4B6
102
}
  0
BLOCK_RECORD
  5
4BD
330
1
100
AcDbSymbolTableRecord
100
AcDbBlockTableRecord
  2
block 152
340
0
102
{BLKREFS
331
4BE
102
}
  0
BLOCK_RECORD
  5
4C8
330
1
100
AcDbSymbolTableRecord
100
AcDbBlockTableRecord
  2
block 153
340
0
102
{BLKREFS
331
4C9
102
}
  0
BLOCK_RECORD
  5
4D3
330
1
100
AcDbSymbolTableRecord
100
AcDbBlockTableRecord
  2
block 154
340
0
102
{BLKREFS
331
4D4
102
}
  0
BLOCK_RECORD
  5
4D8
330
1
100
AcDbSymbolTableRecord
100
AcDbBlockTableRecord
  2
block 155
340
0
102
{BLKREFS
331
4D9
102
}
  0
BLOCK_RECORD
  5
4E0
330
1
100
AcDbSymbolTableRecord
100
AcDbBlockTableRecord
  2
block 156
340
0
102
{BLKREFS
331
4E1
102
}
  0
BLOCK_RECORD
  5
4E8
330
1
100
AcDbSymbolTableRecord
100
AcDbBlockTableRecord
  2
block 157
340
0
102
{BLKREFS
331
4E9
102
}
  0
BLOCK_RECORD
  5
4F0
330
1
100
AcDbSymbolTableRecord
100
AcDbBlockTableRecord
  2
block 158
340
0
102
{BLKREFS
331
4F1
102
}
  0
BLOCK_RECORD
  5
4F5
330
1
100
AcDbSymbolTableRecord
100
AcDbBlockTableRecord
  2
block 159
340
0
102
{BLKREFS
331
4F6
102
}
  0
BLOCK_RECORD
  5
4FD
330
1
100
AcDbSymbolTableRecord
100
AcDbBlockTableRecord
  2
block 160
340
0
102
{BLKREFS
331
4FE
102
}
  0
BLOCK_RECORD
  5
505
330
1
100
AcDbSymbolTableRecord
100
AcDbBlockTableRecord
  2
block 161
340
0
102
{BLKREFS
331
506
102
}
  0
BLOCK_RECORD
  5
50D
330
1
100
AcDbSymbolTableRecord
100
AcDbBlockTableRecord
  2
block 162
340
0
102
{BLKREFS
331
50E
102
}
  0
BLOCK_RECORD
  5
54D
330
1
100
AcDbSymbolTableRecord
100
AcDbBlockTableRecord
  2
block 163
340
0
102
{BLKREFS
331
54E
102
}
  0
BLOCK_RECORD
  5
555
330
1
100
AcDbSymbolTableRecord
100
AcDbBlockTableRecord
  2
block 164
340
0
102
{BLKREFS
331
556
102
}
  0
BLOCK_RECORD
  5
55A
330
1
100
AcDbSymbolTableRecord
100
AcDbBlockTableRecord
  2
block 165
340
0
102
{BLKREFS
331
55B
102
}
  0
BLOCK_RECORD
  5
562
330
1
100
AcDbSymbolTableRecord
100
AcDbBlockTableRecord
  2
block 166
340
0
102
{BLKREFS
331
563
102
}
  0
BLOCK_RECORD
  5
56A
330
1
100
AcDbSymbolTableRecord
100
AcDbBlockTableRecord
  2
block 167
340
0
102
{BLKREFS
331
56B
102
}
  0
BLOCK_RECORD
  5
56F
330
1
100
AcDbSymbolTableRecord
100
AcDbBlockTableRecord
  2
block 168
340
0
102
{BLKREFS
331
570
102
}
  0
BLOCK_RECORD
  5
573
330
1
100
AcDbSymbolTableRecord
100
AcDbBlockTableRecord
  2
block 169
340
0
102
{BLKREFS
331
574
102
}
  0
BLOCK_RECORD
  5
577
330
1
100
AcDbSymbolTableRecord
100
AcDbBlockTableRecord
  2
block 170
340
0
102
{BLKREFS
331
578
102
}
  0
BLOCK_RECORD
  5
57F
330
1
100
AcDbSymbolTableRecord
100
AcDbBlockTableRecord
  2
block 171
340
0
102
{BLKREFS
331
580
102
}
  0
BLOCK_RECORD
  5
584
330
1
100
AcDbSymbolTableRecord
100
AcDbBlockTableRecord
  2
block 172
340
0
102
{BLKREFS
331
585
102
}
  0
BLOCK_RECORD
  5
58F
330
1
100
AcDbSymbolTableRecord
100
AcDbBlockTableRecord
  2
block 173
340
0
102
{BLKREFS
331
590
102
}
  0
BLOCK_RECORD
  5
597
330
1
100
AcDbSymbolTableRecord
100
AcDbBlockTableRecord
  2
block 174
340
0
102
{BLKREFS
331
598
102
}
  0
BLOCK_RECORD
  5
59F
330
1
100
AcDbSymbolTableRecord
100
AcDbBlockTableRecord
  2
block 175
340
0
102
{BLKREFS
331
5A0
102
}
  0
BLOCK_RECORD
  5
5A3
330
1
100
AcDbSymbolTableRecord
100
AcDbBlockTableRecord
  2
block 176
340
0
102
{BLKREFS
331
5A4
102
}
  0
BLOCK_RECORD
  5
5A7
330
1
100
AcDbSymbolTableRecord
100
AcDbBlockTableRecord
  2
block 177
340
0
102
{BLKREFS
331
5A8
102
}
  0
BLOCK_RECORD
  5
5AF
330
1
100
AcDbSymbolTableRecord
100
AcDbBlockTableRecord
  2
block 178
340
0
102
{BLKREFS
331
5B0
102
}
  0
BLOCK_RECORD
  5
5B7
330
1
100
AcDbSymbolTableRecord
100
AcDbBlockTableRecord
  2
block 179
340
0
102
{BLKREFS
331
5B8
102
}
  0
BLOCK_RECORD
  5
5BF
330
1
100
AcDbSymbolTableRecord
100
AcDbBlockTableRecord
  2
block 180
340
0
102
{BLKREFS
331
5C0
102
}
  0
BLOCK_RECORD
  5
5C7
330
1
100
AcDbSymbolTableRecord
100
AcDbBlockTableRecord
  2
block 181
340
0
102
{BLKREFS
331
5C8
102
}
  0
BLOCK_RECORD
  5
5CF
330
1
100
AcDbSymbolTableRecord
100
AcDbBlockTableRecord
  2
block 182
340
0
102
{BLKREFS
331
5D0
102
}
  0
BLOCK_RECORD
  5
5DA
330
1
100
AcDbSymbolTableRecord
100
AcDbBlockTableRecord
  2
block 183
340
0
102
{BLKREFS
331
5DB
102
}
  0
BLOCK_RECORD
  5
5E5
330
1
100
AcDbSymbolTableRecord
100
AcDbBlockTableRecord
  2
block 184
340
0
102
{BLKREFS
331
5E6
102
}
  0
BLOCK_RECORD
  5
5EA
330
1
100
AcDbSymbolTableRecord
100
AcDbBlockTableRecord
  2
block 185
340
0
102
{BLKREFS
331
5EB
102
}
  0
BLOCK_RECORD
  5
5F2
330
1
100
AcDbSymbolTableRecord
100
AcDbBlockTableRecord
  2
block 186
340
0
102
{BLKREFS
331
5F3
102
}
  0
BLOCK_RECORD
  5
5FA
330
1
100
AcDbSymbolTableRecord
100
AcDbBlockTableRecord
  2
block 187
340
0
102
{BLKREFS
331
5FB
102
}
  0
ENDTAB
  0
ENDSEC
  0
SECTION
  2
BLOCKS
  0
BLOCK
  5
20
330
1F
100
AcDbEntity
  8
0
100
AcDbBlockBegin
  2
*Model_Space
 70
     0
 71
     0
 10
0.0
 20
0.0
 30
0.0
  3
*Model_Space
  1

  0
ENDBLK
  5
21
330
1F
100
AcDbEntity
  8
0
100
AcDbBlockEnd
  0
BLOCK
  5
1C
330
1B
100
AcDbEntity
 67
     1
  8
0
100
AcDbBlockBegin
  2
*Paper_Space
 70
     0
 71
     0
 10
0.0
 20
0.0
 30
0.0
  3
*Paper_Space
  1

  0
ENDBLK
  5
1D
330
1B
100
AcDbEntity
 67
     1
  8
0
100
AcDbBlockEnd
  0
BLOCK
  5
24
330
23
100
AcDbEntity
  8
0
100
AcDbBlockBegin
  2
*Paper_Space0
 70
     0
 71
     0
 10
0.0
 20
0.0
 30
0.0
  3
*Paper_Space0
  1

  0
ENDBLK
  5
25
330
23
100
AcDbEntity
  8
0
100
AcDbBlockEnd
  0
BLOCK
  5
3E
330
3C
100
AcDbEntity
  8
0
100
AcDbBlockBegin
  2
block 2
 70
     0
 71
     0
 10
0.0
 20
0.0
 30
0.0
  3
block 2
  1

  0
INSERT
  5
41
330
3C
100
AcDbEntity
  8
\U+5716\U+5C64 1
100
AcDbBlockReference
  2
block 3
 10
0.0
 20
0.0
 30
0.0
  0
INSERT
  5
46
330
3C
100
AcDbEntity
  8
\U+5716\U+5C64 1
100
AcDbBlockReference
  2
block 4
 10
0.0
 20
0.0
 30
0.0
  0
INSERT
  5
4B
330
3C
100
AcDbEntity
  8
\U+5716\U+5C64 1
100
AcDbBlockReference
  2
block 5
 10
0.0
 20
0.0
 30
0.0
  0
INSERT
  5
50
330
3C
100
AcDbEntity
  8
\U+5716\U+5C64 1
100
AcDbBlockReference
  2
block 6
 10
0.0
 20
0.0
 30
0.0
  0
INSERT
  5
55
330
3C
100
AcDbEntity
  8
\U+5716\U+5C64 1
100
AcDbBlockReference
  2
block 7
 10
0.0
 20
0.0
 30
0.0
  0
INSERT
  5
60
330
3C
100
AcDbEntity
  8
\U+5716\U+5C64 1
100
AcDbBlockReference
  2
block 8
 10
0.0
 20
0.0
 30
0.0
  0
INSERT
  5
6B
330
3C
100
AcDbEntity
  8
\U+5716\U+5C64 1
100
AcDbBlockReference
  2
block 9
 10
0.0
 20
0.0
 30
0.0
  0
INSERT
  5
73
330
3C
100
AcDbEntity
  8
\U+5716\U+5C64 1
100
AcDbBlockReference
  2
block 10
 10
0.0
 20
0.0
 30
0.0
  0
INSERT
  5
7B
330
3C
100
AcDbEntity
  8
\U+5716\U+5C64 1
100
AcDbBlockReference
  2
block 11
 10
0.0
 20
0.0
 30
0.0
  0
INSERT
  5
83
330
3C
100
AcDbEntity
  8
\U+5716\U+5C64 1
100
AcDbBlockReference
  2
block 12
 10
0.0
 20
0.0
 30
0.0
  0
INSERT
  5
88
330
3C
100
AcDbEntity
  8
\U+5716\U+5C64 1
100
AcDbBlockReference
  2
block 13
 10
0.0
 20
0.0
 30
0.0
  0
INSERT
  5
90
330
3C
100
AcDbEntity
  8
\U+5716\U+5C64 1
100
AcDbBlockReference
  2
block 14
 10
0.0
 20
0.0
 30
0.0
  0
INSERT
  5
98
330
3C
100
AcDbEntity
  8
\U+5716\U+5C64 1
100
AcDbBlockReference
  2
block 15
 10
0.0
 20
0.0
 30
0.0
  0
INSERT
  5
A0
330
3C
100
AcDbEntity
  8
\U+5716\U+5C64 1
100
AcDbBlockReference
  2
block 16
 10
0.0
 20
0.0
 30
0.0
  0
INSERT
  5
A5
330
3C
100
AcDbEntity
  8
\U+5716\U+5C64 1
100
AcDbBlockReference
  2
block 17
 10
0.0
 20
0.0
 30
0.0
  0
INSERT
  5
AA
330
3C
100
AcDbEntity
  8
\U+5716\U+5C64 1
100
AcDbBlockReference
  2
block 18
 10
0.0
 20
0.0
 30
0.0
  0
INSERT
  5
AF
330
3C
100
AcDbEntity
  8
\U+5716\U+5C64 1
100
AcDbBlockReference
  2
block 19
 10
0.0
 20
0.0
 30
0.0
  0
INSERT
  5
B7
330
3C
100
AcDbEntity
  8
\U+5716\U+5C64 1
100
AcDbBlockReference
  2
block 20
 10
0.0
 20
0.0
 30
0.0
  0
INSERT
  5
BF
330
3C
100
AcDbEntity
  8
\U+5716\U+5C64 1
100
AcDbBlockReference
  2
block 21
 10
0.0
 20
0.0
 30
0.0
  0
INSERT
  5
C7
330
3C
100
AcDbEntity
  8
\U+5716\U+5C64 1
100
AcDbBlockReference
  2
block 22
 10
0.0
 20
0.0
 30
0.0
  0
INSERT
  5
CC
330
3C
100
AcDbEntity
  8
\U+5716\U+5C64 1
100
AcDbBlockReference
  2
block 23
 10
0.0
 20
0.0
 30
0.0
  0
INSERT
  5
D4
330
3C
100
AcDbEntity
  8
\U+5716\U+5C64 1
100
AcDbBlockReference
  2
block 24
 10
0.0
 20
0.0
 30
0.0
  0
INSERT
  5
D9
330
3C
100
AcDbEntity
  8
\U+5716\U+5C64 1
100
AcDbBlockReference
  2
block 25
 10
0.0
 20
0.0
 30
0.0
  0
INSERT
  5
DE
330
3C
100
AcDbEntity
  8
\U+5716\U+5C64 1
100
AcDbBlockReference
  2
block 26
 10
0.0
 20
0.0
 30
0.0
  0
INSERT
  5
E3
330
3C
100
AcDbEntity
  8
\U+5716\U+5C64 1
100
AcDbBlockReference
  2
block 27
 10
0.0
 20
0.0
 30
0.0
  0
INSERT
  5
E8
330
3C
100
AcDbEntity
  8
\U+5716\U+5C64 1
100
AcDbBlockReference
  2
block 28
 10
0.0
 20
0.0
 30
0.0
  0
INSERT
  5
ED
330
3C
100
AcDbEntity
  8
\U+5716\U+5C64 1
100
AcDbBlockReference
  2
block 29
 10
0.0
 20
0.0
 30
0.0
  0
INSERT
  5
F5
330
3C
100
AcDbEntity
  8
\U+5716\U+5C64 1
100
AcDbBlockReference
  2
block 30
 10
0.0
 20
0.0
 30
0.0
  0
INSERT
  5
FD
330
3C
100
AcDbEntity
  8
\U+5716\U+5C64 1
100
AcDbBlockReference
  2
block 31
 10
0.0
 20
0.0
 30
0.0
  0
INSERT
  5
105
330
3C
100
AcDbEntity
  8
\U+5716\U+5C64 1
100
AcDbBlockReference
  2
block 32
 10
0.0
 20
0.0
 30
0.0
  0
INSERT
  5
10A
330
3C
100
AcDbEntity
  8
\U+5716\U+5C64 1
100
AcDbBlockReference
  2
block 33
 10
0.0
 20
0.0
 30
0.0
  0
INSERT
  5
112
330
3C
100
AcDbEntity
  8
\U+5716\U+5C64 1
100
AcDbBlockReference
  2
block 34
 10
0.0
 20
0.0
 30
0.0
  0
INSERT
  5
117
330
3C
100
AcDbEntity
  8
\U+5716\U+5C64 1
100
AcDbBlockReference
  2
block 35
 10
0.0
 20
0.0
 30
0.0
  0
INSERT
  5
11C
330
3C
100
AcDbEntity
  8
\U+5716\U+5C64 1
100
AcDbBlockReference
  2
block 36
 10
0.0
 20
0.0
 30
0.0
  0
INSERT
  5
121
330
3C
100
AcDbEntity
  8
\U+5716\U+5C64 1
100
AcDbBlockReference
  2
block 37
 10
0.0
 20
0.0
 30
0.0
  0
INSERT
  5
126
330
3C
100
AcDbEntity
  8
\U+5716\U+5C64 1
100
AcDbBlockReference
  2
block 38
 10
0.0
 20
0.0
 30
0.0
  0
INSERT
  5
12B
330
3C
100
AcDbEntity
  8
\U+5716\U+5C64 1
100
AcDbBlockReference
  2
block 39
 10
0.0
 20
0.0
 30
0.0
  0
INSERT
  5
134
330
3C
100
AcDbEntity
  8
\U+5716\U+5C64 1
100
AcDbBlockReference
  2
block 40
 10
0.0
 20
0.0
 30
0.0
  0
INSERT
  5
139
330
3C
100
AcDbEntity
  8
\U+5716\U+5C64 1
100
AcDbBlockReference
  2
block 41
 10
0.0
 20
0.0
 30
0.0
  0
INSERT
  5
13E
330
3C
100
AcDbEntity
  8
\U+5716\U+5C64 1
100
AcDbBlockReference
  2
block 42
 10
0.0
 20
0.0
 30
0.0
  0
INSERT
  5
147
330
3C
100
AcDbEntity
  8
\U+5716\U+5C64 1
100
AcDbBlockReference
  2
block 43
 10
0.0
 20
0.0
 30
0.0
  0
INSERT
  5
150
330
3C
100
AcDbEntity
  8
\U+5716\U+5C64 1
100
AcDbBlockReference
  2
block 44
 10
0.0
 20
0.0
 30
0.0
  0
INSERT
  5
159
330
3C
100
AcDbEntity
  8
\U+5716\U+5C64 1
100
AcDbBlockReference
  2
block 45
 10
0.0
 20
0.0
 30
0.0
  0
INSERT
  5
161
330
3C
100
AcDbEntity
  8
\U+5716\U+5C64 1
100
AcDbBlockReference
  2
block 46
 10
0.0
 20
0.0
 30
0.0
  0
INSERT
  5
166
330
3C
100
AcDbEntity
  8
\U+5716\U+5C64 1
100
AcDbBlockReference
  2
block 47
 10
0.0
 20
0.0
 30
0.0
  0
INSERT
  5
16E
330
3C
100
AcDbEntity
  8
\U+5716\U+5C64 1
100
AcDbBlockReference
  2
block 48
 10
0.0
 20
0.0
 30
0.0
  0
INSERT
  5
173
330
3C
100
AcDbEntity
  8
\U+5716\U+5C64 1
100
AcDbBlockReference
  2
block 49
 10
0.0
 20
0.0
 30
0.0
  0
INSERT
  5
17B
330
3C
100
AcDbEntity
  8
\U+5716\U+5C64 1
100
AcDbBlockReference
  2
block 50
 10
0.0
 20
0.0
 30
0.0
  0
INSERT
  5
180
330
3C
100
AcDbEntity
  8
\U+5716\U+5C64 1
100
AcDbBlockReference
  2
block 51
 10
0.0
 20
0.0
 30
0.0
  0
INSERT
  5
188
330
3C
100
AcDbEntity
  8
\U+5716\U+5C64 1
100
AcDbBlockReference
  2
block 52
 10
0.0
 20
0.0
 30
0.0
  0
INSERT
  5
18D
330
3C
100
AcDbEntity
  8
\U+5716\U+5C64 1
100
AcDbBlockReference
  2
block 53
 10
0.0
 20
0.0
 30
0.0
  0
INSERT
  5
195
330
3C
100
AcDbEntity
  8
\U+5716\U+5C64 1
100
AcDbBlockReference
  2
block 54
 10
0.0
 20
0.0
 30
0.0
  0
INSERT
  5
19D
330
3C
100
AcDbEntity
  8
\U+5716\U+5C64 1
100
AcDbBlockReference
  2
block 55
 10
0.0
 20
0.0
 30
0.0
  0
INSERT
  5
1A5
330
3C
100
AcDbEntity
  8
\U+5716\U+5C64 1
100
AcDbBlockReference
  2
block 56
 10
0.0
 20
0.0
 30
0.0
  0
INSERT
  5
1AD
330
3C
100
AcDbEntity
  8
\U+5716\U+5C64 1
100
AcDbBlockReference
  2
block 57
 10
0.0
 20
0.0
 30
0.0
  0
INSERT
  5
1B6
330
3C
100
AcDbEntity
  8
\U+5716\U+5C64 1
100
AcDbBlockReference
  2
block 58
 10
0.0
 20
0.0
 30
0.0
  0
INSERT
  5
1BF
330
3C
100
AcDbEntity
  8
\U+5716\U+5C64 1
100
AcDbBlockReference
  2
block 59
 10
0.0
 20
0.0
 30
0.0
  0
INSERT
  5
1C7
330
3C
100
AcDbEntity
  8
\U+5716\U+5C64 1
100
AcDbBlockReference
  2
block 60
 10
0.0
 20
0.0
 30
0.0
  0
INSERT
  5
1CF
330
3C
100
AcDbEntity
  8
\U+5716\U+5C64 1
100
AcDbBlockReference
  2
block 61
 10
0.0
 20
0.0
 30
0.0
  0
INSERT
  5
1D7
330
3C
100
AcDbEntity
  8
\U+5716\U+5C64 1
100
AcDbBlockReference
  2
block 62
 10
0.0
 20
0.0
 30
0.0
  0
INSERT
  5
1E0
330
3C
100
AcDbEntity
  8
\U+5716\U+5C64 1
100
AcDbBlockReference
  2
block 63
 10
0.0
 20
0.0
 30
0.0
  0
INSERT
  5
1E6
330
3C
100
AcDbEntity
  8
\U+5716\U+5C64 1
100
AcDbBlockReference
  2
block 64
 10
0.0
 20
0.0
 30
0.0
  0
INSERT
  5
1EF
330
3C
100
AcDbEntity
  8
\U+5716\U+5C64 1
100
AcDbBlockReference
  2
block 65
 10
0.0
 20
0.0
 30
0.0
  0
INSERT
  5
1F8
330
3C
100
AcDbEntity
  8
\U+5716\U+5C64 1
100
AcDbBlockReference
  2
block 66
 10
0.0
 20
0.0
 30
0.0
  0
INSERT
  5
1FE
330
3C
100
AcDbEntity
  8
\U+5716\U+5C64 1
100
AcDbBlockReference
  2
block 67
 10
0.0
 20
0.0
 30
0.0
  0
INSERT
  5
207
330
3C
100
AcDbEntity
  8
\U+5716\U+5C64 1
100
AcDbBlockReference
  2
block 68
 10
0.0
 20
0.0
 30
0.0
  0
INSERT
  5
210
330
3C
100
AcDbEntity
  8
\U+5716\U+5C64 1
100
AcDbBlockReference
  2
block 69
 10
0.0
 20
0.0
 30
0.0
  0
INSERT
  5
218
330
3C
100
AcDbEntity
  8
\U+5716\U+5C64 1
100
AcDbBlockReference
  2
block 70
 10
0.0
 20
0.0
 30
0.0
  0
INSERT
  5
221
330
3C
100
AcDbEntity
  8
\U+5716\U+5C64 1
100
AcDbBlockReference
  2
block 71
 10
0.0
 20
0.0
 30
0.0
  0
INSERT
  5
22A
330
3C
100
AcDbEntity
  8
\U+5716\U+5C64 1
100
AcDbBlockReference
  2
block 72
 10
0.0
 20
0.0
 30
0.0
  0
INSERT
  5
233
330
3C
100
AcDbEntity
  8
\U+5716\U+5C64 1
100
AcDbBlockReference
  2
block 73
 10
0.0
 20
0.0
 30
0.0
  0
INSERT
  5
23C
330
3C
100
AcDbEntity
  8
\U+5716\U+5C64 1
100
AcDbBlockReference
  2
block 74
 10
0.0
 20
0.0
 30
0.0
  0
INSERT
  5
28F
330
3C
100
AcDbEntity
  8
\U+5716\U+5C64 1
100
AcDbBlockReference
  2
block 85
 10
0.0
 20
0.0
 30
0.0
  0
INSERT
  5
297
330
3C
100
AcDbEntity
  8
\U+5716\U+5C64 1
100
AcDbBlockReference
  2
block 86
 10
0.0
 20
0.0
 30
0.0
  0
INSERT
  5
29F
330
3C
100
AcDbEntity
  8
\U+5716\U+5C64 1
100
AcDbBlockReference
  2
block 87
 10
0.0
 20
0.0
 30
0.0
  0
INSERT
  5
2A5
330
3C
100
AcDbEntity
  8
\U+5716\U+5C64 1
100
AcDbBlockReference
  2
block 88
 10
0.0
 20
0.0
 30
0.0
  0
INSERT
  5
2AE
330
3C
100
AcDbEntity
  8
\U+5716\U+5C64 1
100
AcDbBlockReference
  2
block 89
 10
0.0
 20
0.0
 30
0.0
  0
INSERT
  5
2B7
330
3C
100
AcDbEntity
  8
\U+5716\U+5C64 1
100
AcDbBlockReference
  2
block 90
 10
0.0
 20
0.0
 30
0.0
  0
INSERT
  5
2C0
330
3C
100
AcDbEntity
  8
\U+5716\U+5C64 1
100
AcDbBlockReference
  2
block 91
 10
0.0
 20
0.0
 30
0.0
  0
INSERT
  5
2C9
330
3C
100
AcDbEntity
  8
\U+5716\U+5C64 1
100
AcDbBlockReference
  2
block 92
 10
0.0
 20
0.0
 30
0.0
  0
INSERT
  5
2D2
330
3C
100
AcDbEntity
  8
\U+5716\U+5C64 1
100
AcDbBlockReference
  2
block 93
 10
0.0
 20
0.0
 30
0.0
  0
INSERT
  5
2D8
330
3C
100
AcDbEntity
  8
\U+5716\U+5C64 1
100
AcDbBlockReference
  2
block 94
 10
0.0
 20
0.0
 30
0.0
  0
INSERT
  5
2E1
330
3C
100
AcDbEntity
  8
\U+5716\U+5C64 1
100
AcDbBlockReference
  2
block 95
 10
0.0
 20
0.0
 30
0.0
  0
INSERT
  5
2EA
330
3C
100
AcDbEntity
  8
\U+5716\U+5C64 1
100
AcDbBlockReference
  2
block 96
 10
0.0
 20
0.0
 30
0.0
  0
INSERT
  5
2F2
330
3C
100
AcDbEntity
  8
\U+5716\U+5C64 1
100
AcDbBlockReference
  2
block 97
 10
0.0
 20
0.0
 30
0.0
  0
INSERT
  5
2FA
330
3C
100
AcDbEntity
  8
\U+5716\U+5C64 1
100
AcDbBlockReference
  2
block 98
 10
0.0
 20
0.0
 30
0.0
  0
INSERT
  5
35A
330
3C
100
AcDbEntity
  8
\U+5716\U+5C64 1
100
AcDbBlockReference
  2
block 111
 10
0.0
 20
0.0
 30
0.0
  0
INSERT
  5
3AD
330
3C
100
AcDbEntity
  8
\U+5716\U+5C64 1
100
AcDbBlockReference
  2
block 122
 10
0.0
 20
0.0
 30
0.0
  0
INSERT
  5
3B2
330
3C
100
AcDbEntity
  8
\U+5716\U+5C64 1
100
AcDbBlockReference
  2
block 123
 10
0.0
 20
0.0
 30
0.0
  0
INSERT
  5
3BA
330
3C
100
AcDbEntity
  8
\U+5716\U+5C64 1
100
AcDbBlockReference
  2
block 124
 10
0.0
 20
0.0
 30
0.0
  0
INSERT
  5
3C3
330
3C
100
AcDbEntity
  8
\U+5716\U+5C64 1
100
AcDbBlockReference
  2
block 125
 10
0.0
 20
0.0
 30
0.0
  0
INSERT
  5
3CC
330
3C
100
AcDbEntity
  8
\U+5716\U+5C64 1
100
AcDbBlockReference
  2
block 126
 10
0.0
 20
0.0
 30
0.0
  0
INSERT
  5
3D4
330
3C
100
AcDbEntity
  8
\U+5716\U+5C64 1
100
AcDbBlockReference
  2
block 127
 10
0.0
 20
0.0
 30
0.0
  0
INSERT
  5
3DC
330
3C
100
AcDbEntity
  8
\U+5716\U+5C64 1
100
AcDbBlockReference
  2
block 128
 10
0.0
 20
0.0
 30
0.0
  0
INSERT
  5
3E4
330
3C
100
AcDbEntity
  8
\U+5716\U+5C64 1
100
AcDbBlockReference
  2
block 129
 10
0.0
 20
0.0
 30
0.0
  0
INSERT
  5
3E9
330
3C
100
AcDbEntity
  8
\U+5716\U+5C64 1
100
AcDbBlockReference
  2
block 130
 10
0.0
 20
0.0
 30
0.0
  0
INSERT
  5
3EE
330
3C
100
AcDbEntity
  8
\U+5716\U+5C64 1
100
AcDbBlockReference
  2
block 131
 10
0.0
 20
0.0
 30
0.0
  0
INSERT
  5
3F6
330
3C
100
AcDbEntity
  8
\U+5716\U+5C64 1
100
AcDbBlockReference
  2
block 132
 10
0.0
 20
0.0
 30
0.0
  0
INSERT
  5
3FB
330
3C
100
AcDbEntity
  8
\U+5716\U+5C64 1
100
AcDbBlockReference
  2
block 133
 10
0.0
 20
0.0
 30
0.0
  0
INSERT
  5
43B
330
3C
100
AcDbEntity
  8
\U+5716\U+5C64 1
100
AcDbBlockReference
  2
block 134
 10
0.0
 20
0.0
 30
0.0
  0
INSERT
  5
48E
330
3C
100
AcDbEntity
  8
\U+5716\U+5C64 1
100
AcDbBlockReference
  2
block 145
 10
0.0
 20
0.0
 30
0.0
  0
INSERT
  5
4F1
330
3C
100
AcDbEntity
  8
\U+5716\U+5C64 1
100
AcDbBlockReference
  2
block 158
 10
0.0
 20
0.0
 30
0.0
  0
INSERT
  5
4F6
330
3C
100
AcDbEntity
  8
\U+5716\U+5C64 1
100
AcDbBlockReference
  2
block 159
 10
0.0
 20
0.0
 30
0.0
  0
INSERT
  5
4FE
330
3C
100
AcDbEntity
  8
\U+5716\U+5C64 1
100
AcDbBlockReference
  2
block 160
 10
0.0
 20
0.0
 30
0.0
  0
INSERT
  5
506
330
3C
100
AcDbEntity
  8
\U+5716\U+5C64 1
100
AcDbBlockReference
  2
block 161
 10
0.0
 20
0.0
 30
0.0
  0
INSERT
  5
50E
330
3C
100
AcDbEntity
  8
\U+5716\U+5C64 1
100
AcDbBlockReference
  2
block 162
 10
0.0
 20
0.0
 30
0.0
  0
INSERT
  5
54E
330
3C
100
AcDbEntity
  8
\U+5716\U+5C64 1
100
AcDbBlockReference
  2
block 163
 10
0.0
 20
0.0
 30
0.0
  0
INSERT
  5
556
330
3C
100
AcDbEntity
  8
\U+5716\U+5C64 1
100
AcDbBlockReference
  2
block 164
 10
0.0
 20
0.0
 30
0.0
  0
INSERT
  5
55B
330
3C
100
AcDbEntity
  8
\U+5716\U+5C64 1
100
AcDbBlockReference
  2
block 165
 10
0.0
 20
0.0
 30
0.0
  0
INSERT
  5
563
330
3C
100
AcDbEntity
  8
\U+5716\U+5C64 1
100
AcDbBlockReference
  2
block 166
 10
0.0
 20
0.0
 30
0.0
  0
INSERT
  5
56B
330
3C
100
AcDbEntity
  8
\U+5716\U+5C64 1
100
AcDbBlockReference
  2
block 167
 10
0.0
 20
0.0
 30
0.0
  0
INSERT
  5
570
330
3C
100
AcDbEntity
  8
\U+5716\U+5C64 1
100
AcDbBlockReference
  2
block 168
 10
0.0
 20
0.0
 30
0.0
  0
INSERT
  5
5A0
330
3C
100
AcDbEntity
  8
\U+5716\U+5C64 1
100
AcDbBlockReference
  2
block 175
 10
0.0
 20
0.0
 30
0.0
  0
ENDBLK
  5
3F
330
3C
100
AcDbEntity
  8
0
100
AcDbBlockEnd
  0
BLOCK
  5
42
330
40
100
AcDbEntity
  8
0
100
AcDbBlockBegin
  2
block 3
 70
     0
 71
     0
 10
0.0
 20
0.0
 30
0.0
  3
block 3
  1

  0
MTEXT
  5
44
330
40
100
AcDbEntity
  8
\U+5716\U+5C64 1
 62
     4
100
AcDbMText
 10
112.0411247746542
 20
21.5545986324631
 30
0.0
 40
4.466755305391086
 41
0.0
 71
     7
 72
     1
  1
\fDFKai-SB|b0|i0|c0|p34;\W1;99401-438
 73
     1
 44
1.0
  0
ENDBLK
  5
43
330
40
100
AcDbEntity
  8
0
100
AcDbBlockEnd
  0
BLOCK
  5
47
330
45
100
AcDbEntity
  8
0
100
AcDbBlockBegin
  2
block 4
 70
     0
 71
     0
 10
0.0
 20
0.0
 30
0.0
  3
block 4
  1

  0
MTEXT
  5
49
330
45
100
AcDbEntity
  8
\U+5716\U+5C64 1
 62
     4
100
AcDbMText
 10
58.79507186670156
 20
3.687632640122191
 30
0.0
 40
4.466755305391086
 41
0.0
 71
     7
 72
     1
  1
\fDFKai-SB|b0|i0|c0|p34;\W1;06,04,04
 73
     1
 44
1.0
  0
ENDBLK
  5
48
330
45
100
AcDbEntity
  8
0
100
AcDbBlockEnd
  0
BLOCK
  5
4C
330
4A
100
AcDbEntity
  8
0
100
AcDbBlockBegin
  2
block 5
 70
     0
 71
     0
 10
0.0
 20
0.0
 30
0.0
  3
block 5
  1

  0
MTEXT
  5
4E
330
4A
100
AcDbEntity
  8
\U+5716\U+5C64 1
 62
     4
100
AcDbMText
 10
65.14008066242751
 20
12.62111563629264
 30
0.0
 40
4.466755305391086
 41
0.0
 71
     7
 72
     1
  1
\fDFKai-SB|b0|i0|c0|p34;\W1;5:1
 73
     1
 44
1.0
  0
ENDBLK
  5
4D
330
4A
100
AcDbEntity
  8
0
100
AcDbBlockEnd
  0
BLOCK
  5
51
330
4F
100
AcDbEntity
  8
0
100
AcDbBlockBegin
  2
block 6
 70
     0
 71
     0
 10
0.0
 20
0.0
 30
0.0
  3
block 6
  1

  0
MTEXT
  5
53
330
4F
100
AcDbEntity
  8
\U+5716\U+5C64 1
 62
     4
100
AcDbMText
 10
112.0411247746542
 20
12.62111563629264
 30
0.0
 40
4.466755305391086
 41
0.0
 71
     7
 72
     1
  1
\fDFKai-SB|b0|i0|c0|p34;\W1;N9MT11T3RC20 NC40
 73
     1
 44
1.0
  0
ENDBLK
  5
52
330
4F
100
AcDbEntity
  8
0
100
AcDbBlockEnd
  0
BLOCK
  5
56
330
54
100
AcDbEntity
  8
0
100
AcDbBlockBegin
  2
block 7
 70
     0
 71
     0
 10
0.0
 20
0.0
 30
0.0
  3
block 7
  1

  0
POLYLINE
  5
58
330
54
100
AcDbEntity
  8
\U+5716\U+5C64 1
 62
     4
370
    25
100
AcDb2dPolyline
 66
     1
 10
0.0
 20
0.0
 30
0.0
  0
VERTEX
  5
59
330
58
100
AcDbEntity
  8
\U+5716\U+5C64 1
 62
     4
370
    25
100
AcDbVertex
100
AcDb2dVertex
 10
7.072268932431652
 20
418.351484375656
 30
0.0
  0
VERTEX
  5
5A
330
58
100
AcDbEntity
  8
\U+5716\U+5C64 1
 62
     4
370
    25
100
AcDbVertex
100
AcDb2dVertex
 10
289.9666435823436
 20
418.351484375656
 30
0.0
  0
VERTEX
  5
5B
330
58
100
AcDbEntity
  8
\U+5716\U+5C64 1
 62
     4
370
    25
100
AcDbVertex
100
AcDb2dVertex
 10
289.9666435823436
 20
1.454175763635629
 30
0.0
  0
VERTEX
  5
5C
330
58
100
AcDbEntity
  8
\U+5716\U+5C64 1
 62
     4
370
    25
100
AcDbVertex
100
AcDb2dVertex
 10
7.072268932431652
 20
1.454175763635629
 30
0.0
  0
VERTEX
  5
5D
330
58
100
AcDbEntity
  8
\U+5716\U+5C64 1
 62
     4
370
    25
100
AcDbVertex
100
AcDb2dVertex
 10
7.072268932431652
 20
418.351484375656
 30
0.0
  0
SEQEND
  5
5E
330
58
100
AcDbEntity
  8
\U+5716\U+5C64 1
370
    25
  0
ENDBLK
  5
57
330
54
100
AcDbEntity
  8
0
100
AcDbBlockEnd
  0
BLOCK
  5
61
330
5F
100
AcDbEntity
  8
0
100
AcDbBlockBegin
  2
block 8
 70
     0
 71
     0
 10
0.0
 20
0.0
 30
0.0
  3
block 8
  1

  0
POLYLINE
  5
63
330
5F
100
AcDbEntity
  8
\U+5716\U+5C64 1
 62
     7
370
    25
100
AcDb2dPolyline
 66
     1
 10
0.0
 20
0.0
 30
0.0
  0
VERTEX
  5
64
330
63
100
AcDbEntity
  8
\U+5716\U+5C64 1
 62
     7
370
    25
100
AcDbVertex
100
AcDb2dVertex
 10
5.583297681440611
 20
419.840455626647
 30
0.0
  0
VERTEX
  5
65
330
63
100
AcDbEntity
  8
\U+5716\U+5C64 1
 62
     7
370
    25
100
AcDbVertex
100
AcDb2dVertex
 10
291.4556148333347
 20
419.840455626647
 30
0.0
  0
VERTEX
  5
66
330
63
100
AcDbEntity
  8
\U+5716\U+5C64 1
 62
     7
370
    25
100
AcDbVertex
100
AcDb2dVertex
 10
291.4556148333347
 20
-0.0344509775796169
 30
0.0
  0
VERTEX
  5
67
330
63
100
AcDbEntity
  8
\U+5716\U+5C64 1
 62
     7
370
    25
100
AcDbVertex
100
AcDb2dVertex
 10
5.583297681440611
 20
-0.0344509775796169
 30
0.0
  0
VERTEX
  5
68
330
63
100
AcDbEntity
  8
\U+5716\U+5C64 1
 62
     7
370
    25
100
AcDbVertex
100
AcDb2dVertex
 10
5.583297681440611
 20
419.840455626647
 30
0.0
  0
SEQEND
  5
69
330
63
100
AcDbEntity
  8
\U+5716\U+5C64 1
370
    25
  0
ENDBLK
  5
62
330
5F
100
AcDbEntity
  8
0
100
AcDbBlockEnd
  0
BLOCK
  5
6C
330
6A
100
AcDbEntity
  8
0
100
AcDbBlockBegin
  2
block 9
 70
     0
 71
     0
 10
0.0
 20
0.0
 30
0.0
  3
block 9
  1

  0
POLYLINE
  5
6E
330
6A
100
AcDbEntity
  8
\U+5716\U+5C64 1
 62
     4
370
    25
100
AcDb2dPolyline
 66
     1
 10
0.0
 20
0.0
 30
0.0
  0
VERTEX
  5
6F
330
6E
100
AcDbEntity
  8
\U+5716\U+5C64 1
 62
     4
370
    25
100
AcDbVertex
100
AcDb2dVertex
 10
7.072268932431652
 20
10.38800326958188
 30
0.0
  0
VERTEX
  5
70
330
6E
100
AcDbEntity
  8
\U+5716\U+5C64 1
 62
     4
370
    25
100
AcDbVertex
100
AcDb2dVertex
 10
188.7203881224865
 20
10.38800326958188
 30
0.0
  0
SEQEND
  5
71
330
6E
100
AcDbEntity
  8
\U+5716\U+5C64 1
370
    25
  0
ENDBLK
  5
6D
330
6A
100
AcDbEntity
  8
0
100
AcDbBlockEnd
  0
BLOCK
  5
74
330
72
100
AcDbEntity
  8
0
100
AcDbBlockBegin
  2
block 10
 70
     0
 71
     0
 10
0.0
 20
0.0
 30
0.0
  3
block 10
  1

  0
POLYLINE
  5
76
330
72
100
AcDbEntity
  8
\U+5716\U+5C64 1
 62
     4
370
    25
100
AcDb2dPolyline
 66
     1
 10
0.0
 20
0.0
 30
0.0
  0
VERTEX
  5
77
330
76
100
AcDbEntity
  8
\U+5716\U+5C64 1
 62
     4
370
    25
100
AcDbVertex
100
AcDb2dVertex
 10
7.072268932431652
 20
19.32148626575233
 30
0.0
  0
VERTEX
  5
78
330
76
100
AcDbEntity
  8
\U+5716\U+5C64 1
 62
     4
370
    25
100
AcDbVertex
100
AcDb2dVertex
 10
188.7203881224865
 20
19.32148626575233
 30
0.0
  0
SEQEND
  5
79
330
76
100
AcDbEntity
  8
\U+5716\U+5C64 1
370
    25
  0
ENDBLK
  5
75
330
72
100
AcDbEntity
  8
0
100
AcDbBlockEnd
  0
BLOCK
  5
7C
330
7A
100
AcDbEntity
  8
0
100
AcDbBlockBegin
  2
block 11
 70
     0
 71
     0
 10
0.0
 20
0.0
 30
0.0
  3
block 11
  1

  0
POLYLINE
  5
7E
330
7A
100
AcDbEntity
  8
\U+5716\U+5C64 1
 62
     7
370
    25
100
AcDb2dPolyline
 66
     1
 10
0.0
 20
0.0
 30
0.0
  0
VERTEX
  5
7F
330
7E
100
AcDbEntity
  8
\U+5716\U+5C64 1
 62
     7
370
    25
100
AcDbVertex
100
AcDb2dVertex
 10
160.4309678829841
 20
10.38800326958188
 30
0.0
  0
VERTEX
  5
80
330
7E
100
AcDbEntity
  8
\U+5716\U+5C64 1
 62
     7
370
    25
100
AcDbVertex
100
AcDb2dVertex
 10
160.4309678829841
 20
1.454175763635629
 30
0.0
  0
SEQEND
  5
81
330
7E
100
AcDbEntity
  8
\U+5716\U+5C64 1
370
    25
  0
ENDBLK
  5
7D
330
7A
100
AcDbEntity
  8
0
100
AcDbBlockEnd
  0
BLOCK
  5
84
330
82
100
AcDbEntity
  8
0
100
AcDbBlockBegin
  2
block 12
 70
     0
 71
     0
 10
0.0
 20
0.0
 30
0.0
  3
block 12
  1

  0
MTEXT
  5
86
330
82
100
AcDbEntity
  8
\U+5716\U+5C64 1
 62
     4
100
AcDbMText
 10
190.9535004891973
 20
11.95207765169649
 30
0.0
 40
5.037669988730154
 41
0.0
 71
     7
 72
     1
  1
\fDFKai-SB|b0|i0|c0|p34;\W1;Jimmore International Corp.
 73
     1
 44
1.0
  0
ENDBLK
  5
85
330
82
100
AcDbEntity
  8
0
100
AcDbBlockEnd
  0
BLOCK
  5
89
330
87
100
AcDbEntity
  8
0
100
AcDbBlockBegin
  2
block 13
 70
     0
 71
     0
 10
0.0
 20
0.0
 30
0.0
  3
block 13
  1

  0
POLYLINE
  5
8B
330
87
100
AcDbEntity
  8
\U+5716\U+5C64 1
 62
     7
370
    25
100
AcDb2dPolyline
 66
     1
 10
0.0
 20
0.0
 30
0.0
  0
VERTEX
  5
8C
330
8B
100
AcDbEntity
  8
\U+5716\U+5C64 1
 62
     7
370
    25
100
AcDbVertex
100
AcDb2dVertex
 10
188.7203881224865
 20
1.454175763635629
 30
0.0
  0
VERTEX
  5
8D
330
8B
100
AcDbEntity
  8
\U+5716\U+5C64 1
 62
     7
370
    25
100
AcDbVertex
100
AcDb2dVertex
 10
188.7203881224865
 20
28.25496926192279
 30
0.0
  0
SEQEND
  5
8E
330
8B
100
AcDbEntity
  8
\U+5716\U+5C64 1
370
    25
  0
ENDBLK
  5
8A
330
87
100
AcDbEntity
  8
0
100
AcDbBlockEnd
  0
BLOCK
  5
91
330
8F
100
AcDbEntity
  8
0
100
AcDbBlockBegin
  2
block 14
 70
     0
 71
     0
 10
0.0
 20
0.0
 30
0.0
  3
block 14
  1

  0
POLYLINE
  5
93
330
8F
100
AcDbEntity
  8
\U+5716\U+5C64 1
 62
     7
370
    25
100
AcDb2dPolyline
 66
     1
 10
0.0
 20
0.0
 30
0.0
  0
VERTEX
  5
94
330
93
100
AcDbEntity
  8
\U+5716\U+5C64 1
 62
     7
370
    25
100
AcDbVertex
100
AcDb2dVertex
 10
7.072268932431652
 20
28.25496926192279
 30
0.0
  0
VERTEX
  5
95
330
93
100
AcDbEntity
  8
\U+5716\U+5C64 1
 62
     7
370
    25
100
AcDbVertex
100
AcDb2dVertex
 10
289.9666435823436
 20
28.25496926192279
 30
0.0
  0
SEQEND
  5
96
330
93
100
AcDbEntity
  8
\U+5716\U+5C64 1
370
    25
  0
ENDBLK
  5
92
330
8F
100
AcDbEntity
  8
0
100
AcDbBlockEnd
  0
BLOCK
  5
99
330
97
100
AcDbEntity
  8
0
100
AcDbBlockBegin
  2
block 15
 70
     0
 71
     0
 10
0.0
 20
0.0
 30
0.0
  3
block 15
  1

  0
POLYLINE
  5
9B
330
97
100
AcDbEntity
  8
\U+5716\U+5C64 1
 62
     7
370
    25
100
AcDb2dPolyline
 66
     1
 10
0.0
 20
0.0
 30
0.0
  0
VERTEX
  5
9C
330
9B
100
AcDbEntity
  8
\U+5716\U+5C64 1
 62
     7
370
    25
100
AcDbVertex
100
AcDb2dVertex
 10
109.8076678981677
 20
1.454175763635629
 30
0.0
  0
VERTEX
  5
9D
330
9B
100
AcDbEntity
  8
\U+5716\U+5C64 1
 62
     7
370
    25
100
AcDbVertex
100
AcDb2dVertex
 10
109.8076678981677
 20
46.1219352542637
 30
0.0
  0
SEQEND
  5
9E
330
9B
100
AcDbEntity
  8
\U+5716\U+5C64 1
370
    25
  0
ENDBLK
  5
9A
330
97
100
AcDbEntity
  8
0
100
AcDbBlockEnd
  0
BLOCK
  5
A1
330
9F
100
AcDbEntity
  8
0
100
AcDbBlockBegin
  2
block 16
 70
     0
 71
     0
 10
0.0
 20
0.0
 30
0.0
  3
block 16
  1

  0
MTEXT
  5
A3
330
9F
100
AcDbEntity
  8
\U+5716\U+5C64 1
 62
     4
100
AcDbMText
 10
85.9849891567505
 20
3.687632640122191
 30
0.0
 40
4.466755305391086
 41
0.0
 71
     7
 72
     1
  1
\fDFKai-SB|b0|i0|c0|p34;\W1;DRAWN
 73
     1
 44
1.0
  0
ENDBLK
  5
A2
330
9F
100
AcDbEntity
  8
0
100
AcDbBlockEnd
  0
BLOCK
  5
A6
330
A4
100
AcDbEntity
  8
0
100
AcDbBlockBegin
  2
block 17
 70
     0
 71
     0
 10
0.0
 20
0.0
 30
0.0
  3
block 17
  1

  0
MTEXT
  5
A8
330
A4
100
AcDbEntity
  8
\U+5716\U+5C64 1
 62
     4
100
AcDbMText
 10
121.7190933963202
 20
3.687632640122191
 30
0.0
 40
4.466755305391086
 41
0.0
 71
     7
 72
     1
  1
\fDFKai-SB|b0|i0|c0|p34;\W1;tony
 73
     1
 44
1.0
  0
ENDBLK
  5
A7
330
A4
100
AcDbEntity
  8
0
100
AcDbBlockEnd
  0
BLOCK
  5
AB
330
A9
100
AcDbEntity
  8
0
100
AcDbBlockBegin
  2
block 18
 70
     0
 71
     0
 10
0.0
 20
0.0
 30
0.0
  3
block 18
  1

  0
MTEXT
  5
AD
330
A9
100
AcDbEntity
  8
\U+5716\U+5C64 1
 62
     4
100
AcDbMText
 10
139.5860593886611
 20
3.687632640122191
 30
0.0
 40
4.466755305391086
 41
0.0
 71
     7
 72
     1
  1
\fDFKai-SB|b0|i0|c0|p34;\W1;APPRD
 73
     1
 44
1.0
  0
ENDBLK
  5
AC
330
A9
100
AcDbEntity
  8
0
100
AcDbBlockEnd
  0
BLOCK
  5
B0
330
AE
100
AcDbEntity
  8
0
100
AcDbBlockBegin
  2
block 19
 70
     0
 71
     0
 10
0.0
 20
0.0
 30
0.0
  3
block 19
  1

  0
POLYLINE
  5
B2
330
AE
100
AcDbEntity
  8
\U+5716\U+5C64 1
 62
     7
370
    25
100
AcDb2dPolyline
 66
     1
 10
0.0
 20
0.0
 30
0.0
  0
VERTEX
  5
B3
330
B2
100
AcDbEntity
  8
\U+5716\U+5C64 1
 62
     7
370
    25
100
AcDbVertex
100
AcDb2dVertex
 10
138.0970881376701
 20
10.38800326958188
 30
0.0
  0
VERTEX
  5
B4
330
B2
100
AcDbEntity
  8
\U+5716\U+5C64 1
 62
     7
370
    25
100
AcDbVertex
100
AcDb2dVertex
 10
138.0970881376701
 20
1.454175763635629
 30
0.0
  0
SEQEND
  5
B5
330
B2
100
AcDbEntity
  8
\U+5716\U+5C64 1
370
    25
  0
ENDBLK
  5
B1
330
AE
100
AcDbEntity
  8
0
100
AcDbBlockEnd
  0
BLOCK
  5
B8
330
B6
100
AcDbEntity
  8
0
100
AcDbBlockBegin
  2
block 20
 70
     0
 71
     0
 10
0.0
 20
0.0
 30
0.0
  3
block 20
  1

  0
POLYLINE
  5
BA
330
B6
100
AcDbEntity
  8
\U+5716\U+5C64 1
 62
     4
370
    25
100
AcDb2dPolyline
 66
     1
 10
0.0
 20
0.0
 30
0.0
  0
VERTEX
  5
BB
330
BA
100
AcDbEntity
  8
\U+5716\U+5C64 1
 62
     4
370
    25
100
AcDbVertex
100
AcDb2dVertex
 10
7.072268932431652
 20
46.1219352542637
 30
0.0
  0
VERTEX
  5
BC
330
BA
100
AcDbEntity
  8
\U+5716\U+5C64 1
 62
     4
370
    25
100
AcDbVertex
100
AcDb2dVertex
 10
109.8076678981677
 20
46.1219352542637
 30
0.0
  0
SEQEND
  5
BD
330
BA
100
AcDbEntity
  8
\U+5716\U+5C64 1
370
    25
  0
ENDBLK
  5
B9
330
B6
100
AcDbEntity
  8
0
100
AcDbBlockEnd
  0
BLOCK
  5
C0
330
BE
100
AcDbEntity
  8
0
100
AcDbBlockBegin
  2
block 21
 70
     0
 71
     0
 10
0.0
 20
0.0
 30
0.0
  3
block 21
  1

  0
POLYLINE
  5
C2
330
BE
100
AcDbEntity
  8
\U+5716\U+5C64 1
 62
     4
370
    25
100
AcDb2dPolyline
 66
     1
 10
0.0
 20
0.0
 30
0.0
  0
VERTEX
  5
C3
330
C2
100
AcDbEntity
  8
\U+5716\U+5C64 1
 62
     4
370
    25
100
AcDbVertex
100
AcDb2dVertex
 10
7.072268932431652
 20
37.18845225809324
 30
0.0
  0
VERTEX
  5
C4
330
C2
100
AcDbEntity
  8
\U+5716\U+5C64 1
 62
     4
370
    25
100
AcDbVertex
100
AcDb2dVertex
 10
109.8076678981677
 20
37.18845225809324
 30
0.0
  0
SEQEND
  5
C5
330
C2
100
AcDbEntity
  8
\U+5716\U+5C64 1
370
    25
  0
ENDBLK
  5
C1
330
BE
100
AcDbEntity
  8
0
100
AcDbBlockEnd
  0
BLOCK
  5
C8
330
C6
100
AcDbEntity
  8
0
100
AcDbBlockBegin
  2
block 22
 70
     0
 71
     0
 10
0.0
 20
0.0
 30
0.0
  3
block 22
  1

  0
MTEXT
  5
CA
330
C6
100
AcDbEntity
  8
\U+5716\U+5C64 1
 62
     4
100
AcDbMText
 10
85.9849891567505
 20
12.62111563629264
 30
0.0
 40
4.466755305391086
 41
0.0
 71
     7
 72
     1
  1
\fDFKai-SB|b0|i0|c0|p34;\W1;PROJECT
 73
     1
 44
1.0
  0
ENDBLK
  5
C9
330
C6
100
AcDbEntity
  8
0
100
AcDbBlockEnd
  0
BLOCK
  5
CD
330
CB
100
AcDbEntity
  8
0
100
AcDbBlockBegin
  2
block 23
 70
     0
 71
     0
 10
0.0
 20
0.0
 30
0.0
  3
block 23
  1

  0
POLYLINE
  5
CF
330
CB
100
AcDbEntity
  8
\U+5716\U+5C64 1
 62
     7
370
    25
100
AcDb2dPolyline
 66
     1
 10
0.0
 20
0.0
 30
0.0
  0
VERTEX
  5
D0
330
CF
100
AcDbEntity
  8
\U+5716\U+5C64 1
 62
     7
370
    25
100
AcDbVertex
100
AcDb2dVertex
 10
84.49601790575946
 20
46.1219352542637
 30
0.0
  0
VERTEX
  5
D1
330
CF
100
AcDbEntity
  8
\U+5716\U+5C64 1
 62
     7
370
    25
100
AcDbVertex
100
AcDb2dVertex
 10
84.49601790575946
 20
1.454175763635629
 30
0.0
  0
SEQEND
  5
D2
330
CF
100
AcDbEntity
  8
\U+5716\U+5C64 1
370
    25
  0
ENDBLK
  5
CE
330
CB
100
AcDbEntity
  8
0
100
AcDbBlockEnd
  0
BLOCK
  5
D5
330
D3
100
AcDbEntity
  8
0
100
AcDbBlockBegin
  2
block 24
 70
     0
 71
     0
 10
0.0
 20
0.0
 30
0.0
  3
block 24
  1

  0
MTEXT
  5
D7
330
D3
100
AcDbEntity
  8
\U+5716\U+5C64 1
 62
     4
100
AcDbMText
 10
85.9849891567505
 20
21.5545986324631
 30
0.0
 40
4.466755305391086
 41
0.0
 71
     7
 72
     1
  1
\fDFKai-SB|b0|i0|c0|p34;\W1;DWG.NO
 73
     1
 44
1.0
  0
ENDBLK
  5
D6
330
D3
100
AcDbEntity
  8
0
100
AcDbBlockEnd
  0
BLOCK
  5
DA
330
D8
100
AcDbEntity
  8
0
100
AcDbBlockBegin
  2
block 25
 70
     0
 71
     0
 10
0.0
 20
0.0
 30
0.0
  3
block 25
  1

  0
MTEXT
  5
DC
330
D8
100
AcDbEntity
  8
\U+5716\U+5C64 1
 62
     4
100
AcDbMText
 10
67.37353753891406
 20
30.48808162863356
 30
0.0
 40
4.466755305391086
 41
0.0
 71
     7
 72
     1
  1
\fDFKai-SB|b0|i0|c0|p34;\W1;APPRD
 73
     1
 44
1.0
  0
ENDBLK
  5
DB
330
D8
100
AcDbEntity
  8
0
100
AcDbBlockEnd
  0
BLOCK
  5
DF
330
DD
100
AcDbEntity
  8
0
100
AcDbBlockBegin
  2
block 26
 70
     0
 71
     0
 10
0.0
 20
0.0
 30
0.0
  3
block 26
  1

  0
MTEXT
  5
E1
330
DD
100
AcDbEntity
  8
\U+5716\U+5C64 1
 62
     4
100
AcDbMText
 10
89.7072450293402
 20
30.48808162863356
 30
0.0
 40
4.466755305391086
 41
0.0
 71
     7
 72
     1
  1
\fDFKai-SB|b0|i0|c0|p34;\W1;DATE
 73
     1
 44
1.0
  0
ENDBLK
  5
E0
330
DD
100
AcDbEntity
  8
0
100
AcDbBlockEnd
  0
BLOCK
  5
E4
330
E2
100
AcDbEntity
  8
0
100
AcDbBlockBegin
  2
block 27
 70
     0
 71
     0
 10
0.0
 20
0.0
 30
0.0
  3
block 27
  1

  0
MTEXT
  5
E6
330
E2
100
AcDbEntity
  8
\U+5716\U+5C64 1
 62
     4
100
AcDbMText
 10
8.561240183422694
 20
21.5545986324631
 30
0.0
 40
4.466755305391086
 41
0.0
 71
     7
 72
     1
  1
\fDFKai-SB|b0|i0|c0|p34;\W1;MATL
 73
     1
 44
1.0
  0
ENDBLK
  5
E5
330
E2
100
AcDbEntity
  8
0
100
AcDbBlockEnd
  0
BLOCK
  5
E9
330
E7
100
AcDbEntity
  8
0
100
AcDbBlockBegin
  2
block 28
 70
     0
 71
     0
 10
0.0
 20
0.0
 30
0.0
  3
block 28
  1

  0
MTEXT
  5
EB
330
E7
100
AcDbEntity
  8
\U+5716\U+5C64 1
 62
     4
100
AcDbMText
 10
8.561240183422694
 20
30.48808162863356
 30
0.0
 40
4.466755305391086
 41
0.0
 71
     7
 72
     1
  1
\fDFKai-SB|b0|i0|c0|p34;\W1;NO.
 73
     1
 44
1.0
  0
ENDBLK
  5
EA
330
E7
100
AcDbEntity
  8
0
100
AcDbBlockEnd
  0
BLOCK
  5
EE
330
EC
100
AcDbEntity
  8
0
100
AcDbBlockBegin
  2
block 29
 70
     0
 71
     0
 10
0.0
 20
0.0
 30
0.0
  3
block 29
  1

  0
POLYLINE
  5
F0
330
EC
100
AcDbEntity
  8
\U+5716\U+5C64 1
 62
     7
370
    25
100
AcDb2dPolyline
 66
     1
 10
0.0
 20
0.0
 30
0.0
  0
VERTEX
  5
F1
330
F0
100
AcDbEntity
  8
\U+5716\U+5C64 1
 62
     7
370
    25
100
AcDbVertex
100
AcDb2dVertex
 10
39.82843067001929
 20
1.454175763635629
 30
0.0
  0
VERTEX
  5
F2
330
F0
100
AcDbEntity
  8
\U+5716\U+5C64 1
 62
     7
370
    25
100
AcDbVertex
100
AcDb2dVertex
 10
39.82843067001929
 20
19.32148626575233
 30
0.0
  0
SEQEND
  5
F3
330
F0
100
AcDbEntity
  8
\U+5716\U+5C64 1
370
    25
  0
ENDBLK
  5
EF
330
EC
100
AcDbEntity
  8
0
100
AcDbBlockEnd
  0
BLOCK
  5
F6
330
F4
100
AcDbEntity
  8
0
100
AcDbBlockBegin
  2
block 30
 70
     0
 71
     0
 10
0.0
 20
0.0
 30
0.0
  3
block 30
  1

  0
POLYLINE
  5
F8
330
F4
100
AcDbEntity
  8
\U+5716\U+5C64 1
 62
     7
370
    25
100
AcDb2dPolyline
 66
     1
 10
0.0
 20
0.0
 30
0.0
  0
VERTEX
  5
F9
330
F8
100
AcDbEntity
  8
\U+5716\U+5C64 1
 62
     7
370
    25
100
AcDbVertex
100
AcDb2dVertex
 10
57.69556891724809
 20
1.454175763635629
 30
0.0
  0
VERTEX
  5
FA
330
F8
100
AcDbEntity
  8
\U+5716\U+5C64 1
 62
     7
370
    25
100
AcDbVertex
100
AcDb2dVertex
 10
57.69556891724809
 20
19.32148626575233
 30
0.0
  0
SEQEND
  5
FB
330
F8
100
AcDbEntity
  8
\U+5716\U+5C64 1
370
    25
  0
ENDBLK
  5
F7
330
F4
100
AcDbEntity
  8
0
100
AcDbBlockEnd
  0
BLOCK
  5
FE
330
FC
100
AcDbEntity
  8
0
100
AcDbBlockBegin
  2
block 31
 70
     0
 71
     0
 10
0.0
 20
0.0
 30
0.0
  3
block 31
  1

  0
POLYLINE
  5
100
330
FC
100
AcDbEntity
  8
\U+5716\U+5C64 1
 62
     7
370
    25
100
AcDb2dPolyline
 66
     1
 10
0.0
 20
0.0
 30
0.0
  0
VERTEX
  5
101
330
100
100
AcDbEntity
  8
\U+5716\U+5C64 1
 62
     7
370
    25
100
AcDbVertex
100
AcDb2dVertex
 10
21.96146467767838
 20
46.1219352542637
 30
0.0
  0
VERTEX
  5
102
330
100
100
AcDbEntity
  8
\U+5716\U+5C64 1
 62
     7
370
    25
100
AcDbVertex
100
AcDb2dVertex
 10
21.96146467767838
 20
1.454175763635629
 30
0.0
  0
SEQEND
  5
103
330
100
100
AcDbEntity
  8
\U+5716\U+5C64 1
370
    25
  0
ENDBLK
  5
FF
330
FC
100
AcDbEntity
  8
0
100
AcDbBlockEnd
  0
BLOCK
  5
106
330
104
100
AcDbEntity
  8
0
100
AcDbBlockBegin
  2
block 32
 70
     0
 71
     0
 10
0.0
 20
0.0
 30
0.0
  3
block 32
  1

  0
MTEXT
  5
108
330
104
100
AcDbEntity
  8
\U+5716\U+5C64 1
 62
     4
100
AcDbMText
 10
31.63943329934435
 20
30.48808162863356
 30
0.0
 40
4.466755305391086
 41
0.0
 71
     7
 72
     1
  1
\fDFKai-SB|b0|i0|c0|p34;\W1;CHANGED
 73
     1
 44
1.0
  0
ENDBLK
  5
107
330
104
100
AcDbEntity
  8
0
100
AcDbBlockEnd
  0
BLOCK
  5
10B
330
109
100
AcDbEntity
  8
0
100
AcDbBlockBegin
  2
block 33
 70
     0
 71
     0
 10
0.0
 20
0.0
 30
0.0
  3
block 33
  1

  0
POLYLINE
  5
10D
330
109
100
AcDbEntity
  8
\U+5716\U+5C64 1
 62
     7
370
    25
100
AcDb2dPolyline
 66
     1
 10
0.0
 20
0.0
 30
0.0
  0
VERTEX
  5
10E
330
10D
100
AcDbEntity
  8
\U+5716\U+5C64 1
 62
     7
370
    25
100
AcDbVertex
100
AcDb2dVertex
 10
65.14008066242751
 20
28.25496926192279
 30
0.0
  0
VERTEX
  5
10F
330
10D
100
AcDbEntity
  8
\U+5716\U+5C64 1
 62
     7
370
    25
100
AcDbVertex
100
AcDb2dVertex
 10
65.14008066242751
 20
46.1219352542637
 30
0.0
  0
SEQEND
  5
110
330
10D
100
AcDbEntity
  8
\U+5716\U+5C64 1
370
    25
  0
ENDBLK
  5
10C
330
109
100
AcDbEntity
  8
0
100
AcDbBlockEnd
  0
BLOCK
  5
113
330
111
100
AcDbEntity
  8
0
100
AcDbBlockBegin
  2
block 34
 70
     0
 71
     0
 10
0.0
 20
0.0
 30
0.0
  3
block 34
  1

  0
MTEXT
  5
115
330
111
100
AcDbEntity
  8
\U+5716\U+5C64 1
 62
     4
100
AcDbMText
 10
8.561240183422694
 20
3.687632640122191
 30
0.0
 40
4.466755305391086
 41
0.0
 71
     7
 72
     1
  1
\fDFKai-SB|b0|i0|c0|p34;\W1;UNIT
 73
     1
 44
1.0
  0
ENDBLK
  5
114
330
111
100
AcDbEntity
  8
0
100
AcDbBlockEnd
  0
BLOCK
  5
118
330
116
100
AcDbEntity
  8
0
100
AcDbBlockBegin
  2
block 35
 70
     0
 71
     0
 10
0.0
 20
0.0
 30
0.0
  3
block 35
  1

  0
MTEXT
  5
11A
330
116
100
AcDbEntity
  8
\U+5716\U+5C64 1
 62
     4
100
AcDbMText
 10
8.561240183422694
 20
12.62111563629264
 30
0.0
 40
4.466755305391086
 41
0.0
 71
     7
 72
     1
  1
\fDFKai-SB|b0|i0|c0|p34;\W1;QTY
 73
     1
 44
1.0
  0
ENDBLK
  5
119
330
116
100
AcDbEntity
  8
0
100
AcDbBlockEnd
  0
BLOCK
  5
11D
330
11B
100
AcDbEntity
  8
0
100
AcDbBlockBegin
  2
block 36
 70
     0
 71
     0
 10
0.0
 20
0.0
 30
0.0
  3
block 36
  1

  0
MTEXT
  5
11F
330
11B
100
AcDbEntity
  8
\U+5716\U+5C64 1
 62
     4
100
AcDbMText
 10
41.31740192101032
 20
12.62111563629264
 30
0.0
 40
4.466755305391086
 41
0.0
 71
     7
 72
     1
  1
\fDFKai-SB|b0|i0|c0|p34;\W1;SCALE
 73
     1
 44
1.0
  0
ENDBLK
  5
11E
330
11B
100
AcDbEntity
  8
0
100
AcDbBlockEnd
  0
BLOCK
  5
122
330
120
100
AcDbEntity
  8
0
100
AcDbBlockBegin
  2
block 37
 70
     0
 71
     0
 10
0.0
 20
0.0
 30
0.0
  3
block 37
  1

  0
MTEXT
  5
124
330
120
100
AcDbEntity
  8
\U+5716\U+5C64 1
 62
     4
100
AcDbMText
 10
27.91717742675464
 20
3.687632640122191
 30
0.0
 40
4.466755305391086
 41
0.0
 71
     7
 72
     1
  1
\fDFKai-SB|b0|i0|c0|p34;\W1;MM
 73
     1
 44
1.0
  0
ENDBLK
  5
123
330
120
100
AcDbEntity
  8
0
100
AcDbBlockEnd
  0
BLOCK
  5
127
330
125
100
AcDbEntity
  8
0
100
AcDbBlockBegin
  2
block 38
 70
     0
 71
     0
 10
0.0
 20
0.0
 30
0.0
  3
block 38
  1

  0
MTEXT
  5
129
330
125
100
AcDbEntity
  8
\U+5716\U+5C64 1
 62
     4
100
AcDbMText
 10
41.31740192101032
 20
3.687632640122191
 30
0.0
 40
4.466755305391086
 41
0.0
 71
     7
 72
     1
  1
\fDFKai-SB|b0|i0|c0|p34;\W1;DATE
 73
     1
 44
1.0
  0
ENDBLK
  5
128
330
125
100
AcDbEntity
  8
0
100
AcDbBlockEnd
  0
BLOCK
  5
12C
330
12A
100
AcDbEntity
  8
0
100
AcDbBlockBegin
  2
block 39
 70
     0
 71
     0
 10
0.0
 20
0.0
 30
0.0
  3
block 39
  1

  0
POLYLINE
  5
12E
330
12A
100
AcDbEntity
  8
\U+5716\U+5C64 1
  6
AI-Linetype-1
 62
     4
370
    25
100
AcDb2dPolyline
 66
     1
 10
0.0
 20
0.0
 30
0.0
  0
VERTEX
  5
12F
330
12E
100
AcDbEntity
  8
\U+5716\U+5C64 1
  6
AI-Linetype-1
 62
     4
370
    25
100
AcDbVertex
100
AcDb2dVertex
 10
116.4994257832325
 20
220.599600225785
 30
0.0
  0
VERTEX
  5
130
330
12E
100
AcDbEntity
  8
\U+5716\U+5C64 1
  6
AI-Linetype-1
 62
     4
370
    25
100
AcDbVertex
100
AcDb2dVertex
 10
116.4994257832325
 20
340.0790355696543
 30
0.0
  0
SEQEND
  5
131
330
12E
100
AcDbEntity
  8
\U+5716\U+5C64 1
  6
AI-Linetype-1
370
    25
  0
ENDBLK
  5
12D
330
12A
100
AcDbEntity
  8
0
100
AcDbBlockEnd
  0
BLOCK
  5
135
330
133
100
AcDbEntity
  8
0
100
AcDbBlockBegin
  2
block 40
 70
     0
 71
     0
 10
0.0
 20
0.0
 30
0.0
  3
block 40
  1

  0
SPLINE
  5
137
330
133
100
AcDbEntity
  8
\U+5716\U+5C64 1
 62
     7
370
    25
100
AcDbSpline
210
0.0
220
0.0
230
1.0
 70
    11
 71
     3
 72
    23
 73
    19
 74
     0
 42
0.0000000001
 43
0.0000000001
 40
0.0
 40
0.0
 40
0.0
 40
0.0
 40
1.0
 40
1.0
 40
1.0
 40
2.0
 40
2.0
 40
2.0
 40
3.0
 40
3.0
 40
3.0
 40
4.0
 40
4.0
 40
4.0
 40
5.0
 40
5.0
 40
5.0
 40
6.0
 40
6.0
 40
6.0
 40
6.0
 10
138.8331332736586
 20
280.3393178977196
 30
0.0
 10
138.8331332736586
 20
292.6739736554378
 30
0.0
 10
128.8339092860627
 20
302.6730253881458
 30
0.0
 10
116.4994257832325
 20
302.6730253881458
 30
0.0
 10
104.1647700255143
 20
302.6730253881458
 30
0.0
 10
94.16554603791842
 20
292.6739736554378
 30
0.0
 10
94.16554603791842
 20
280.3393178977196
 30
0.0
 10
94.16554603791842
 20
268.0046621400015
 30
0.0
 10
104.1647700255143
 20
258.0054381524056
 30
0.0
 10
116.4994257832325
 20
258.0054381524056
 30
0.0
 10
128.8339092860627
 20
258.0054381524056
 30
0.0
 10
138.8331332736586
 20
268.0046621400015
 30
0.0
 10
138.8331332736586
 20
280.3393178977196
 30
0.0
 10
138.8331332736586
 20
280.3393178977196
 30
0.0
 10
138.8331332736586
 20
280.3393178977196
 30
0.0
 10
138.8331332736586
 20
280.3393178977196
 30
0.0
 10
138.8331332736586
 20
280.3393178977196
 30
0.0
 10
138.8331332736586
 20
280.3393178977196
 30
0.0
 10
138.8331332736586
 20
280.3393178977196
 30
0.0
  0
ENDBLK
  5
136
330
133
100
AcDbEntity
  8
0
100
AcDbBlockEnd
  0
BLOCK
  5
13A
330
138
100
AcDbEntity
  8
0
100
AcDbBlockBegin
  2
block 41
 70
     0
 71
     0
 10
0.0
 20
0.0
 30
0.0
  3
block 41
  1

  0
SPLINE
  5
13C
330
138
100
AcDbEntity
  8
\U+5716\U+5C64 1
 62
     7
370
    25
100
AcDbSpline
210
0.0
220
0.0
230
1.0
 70
    11
 71
     3
 72
    23
 73
    19
 74
     0
 42
0.0000000001
 43
0.0000000001
 40
0.0
 40
0.0
 40
0.0
 40
0.0
 40
1.0
 40
1.0
 40
1.0
 40
2.0
 40
2.0
 40
2.0
 40
3.0
 40
3.0
 40
3.0
 40
4.0
 40
4.0
 40
4.0
 40
5.0
 40
5.0
 40
5.0
 40
6.0
 40
6.0
 40
6.0
 40
6.0
 10
132.8774205245823
 20
280.3393178977196
 30
0.0
 10
132.8774205245823
 20
289.3847665710239
 30
0.0
 10
125.5447022016488
 20
296.7174848939574
 30
0.0
 10
116.4994257832325
 20
296.7174848939574
 30
0.0
 10
107.4539771099282
 20
296.7174848939574
 30
0.0
 10
100.1212587869947
 20
289.3847665710239
 30
0.0
 10
100.1212587869947
 20
280.3393178977196
 30
0.0
 10
100.1212587869947
 20
271.2938692244155
 30
0.0
 10
107.4539771099282
 20
263.9611509014819
 30
0.0
 10
116.4994257832325
 20
263.9611509014819
 30
0.0
 10
125.5447022016488
 20
263.9611509014819
 30
0.0
 10
132.8774205245823
 20
271.2938692244155
 30
0.0
 10
132.8774205245823
 20
280.3393178977196
 30
0.0
 10
132.8774205245823
 20
280.3393178977196
 30
0.0
 10
132.8774205245823
 20
280.3393178977196
 30
0.0
 10
132.8774205245823
 20
280.3393178977196
 30
0.0
 10
132.8774205245823
 20
280.3393178977196
 30
0.0
 10
132.8774205245823
 20
280.3393178977196
 30
0.0
 10
132.8774205245823
 20
280.3393178977196
 30
0.0
  0
ENDBLK
  5
13B
330
138
100
AcDbEntity
  8
0
100
AcDbBlockEnd
  0
BLOCK
  5
13F
330
13D
100
AcDbEntity
  8
0
100
AcDbBlockBegin
  2
block 42
 70
     0
 71
     0
 10
0.0
 20
0.0
 30
0.0
  3
block 42
  1

  0
POLYLINE
  5
141
330
13D
100
AcDbEntity
  8
\U+5716\U+5C64 1
  6
AI-Linetype-2
 62
     4
370
    25
100
AcDb2dPolyline
 66
     1
 10
0.0
 20
0.0
 30
0.0
  0
VERTEX
  5
142
330
141
100
AcDbEntity
  8
\U+5716\U+5C64 1
  6
AI-Linetype-2
 62
     4
370
    25
100
AcDbVertex
100
AcDb2dVertex
 10
84.62503681679512
 20
312.2135346092691
 30
0.0
  0
VERTEX
  5
143
330
141
100
AcDbEntity
  8
\U+5716\U+5C64 1
  6
AI-Linetype-2
 62
     4
370
    25
100
AcDbVertex
100
AcDb2dVertex
 10
148.3736424947819
 20
248.4651011861702
 30
0.0
  0
SEQEND
  5
144
330
141
100
AcDbEntity
  8
\U+5716\U+5C64 1
  6
AI-Linetype-2
370
    25
  0
ENDBLK
  5
140
330
13D
100
AcDbEntity
  8
0
100
AcDbBlockEnd
  0
BLOCK
  5
148
330
146
100
AcDbEntity
  8
0
100
AcDbBlockBegin
  2
block 43
 70
     0
 71
     0
 10
0.0
 20
0.0
 30
0.0
  3
block 43
  1

  0
POLYLINE
  5
14A
330
146
100
AcDbEntity
  8
\U+5716\U+5C64 1
  6
AI-Linetype-3
 62
     4
370
    25
100
AcDb2dPolyline
 66
     1
 10
0.0
 20
0.0
 30
0.0
  0
VERTEX
  5
14B
330
14A
100
AcDbEntity
  8
\U+5716\U+5C64 1
  6
AI-Linetype-3
 62
     4
370
    25
100
AcDbVertex
100
AcDb2dVertex
 10
148.3736424947819
 20
312.2135346092691
 30
0.0
  0
VERTEX
  5
14C
330
14A
100
AcDbEntity
  8
\U+5716\U+5C64 1
  6
AI-Linetype-3
 62
     4
370
    25
100
AcDbVertex
100
AcDb2dVertex
 10
84.62503681679512
 20
248.4651011861702
 30
0.0
  0
SEQEND
  5
14D
330
14A
100
AcDbEntity
  8
\U+5716\U+5C64 1
  6
AI-Linetype-3
370
    25
  0
ENDBLK
  5
149
330
146
100
AcDbEntity
  8
0
100
AcDbBlockEnd
  0
BLOCK
  5
151
330
14F
100
AcDbEntity
  8
0
100
AcDbBlockBegin
  2
block 44
 70
     0
 71
     0
 10
0.0
 20
0.0
 30
0.0
  3
block 44
  1

  0
POLYLINE
  5
153
330
14F
100
AcDbEntity
  8
\U+5716\U+5C64 1
  6
AI-Linetype-4
 62
     4
370
    25
100
AcDb2dPolyline
 66
     1
 10
0.0
 20
0.0
 30
0.0
  0
VERTEX
  5
154
330
153
100
AcDbEntity
  8
\U+5716\U+5C64 1
  6
AI-Linetype-4
 62
     4
370
    25
100
AcDbVertex
100
AcDb2dVertex
 10
114.6382117194937
 20
220.599600225785
 30
0.0
  0
VERTEX
  5
155
330
153
100
AcDbEntity
  8
\U+5716\U+5C64 1
  6
AI-Linetype-4
 62
     4
370
    25
100
AcDbVertex
100
AcDb2dVertex
 10
114.6382117194937
 20
340.0790355696543
 30
0.0
  0
SEQEND
  5
156
330
153
100
AcDbEntity
  8
\U+5716\U+5C64 1
  6
AI-Linetype-4
370
    25
  0
ENDBLK
  5
152
330
14F
100
AcDbEntity
  8
0
100
AcDbBlockEnd
  0
BLOCK
  5
15A
330
158
100
AcDbEntity
  8
0
100
AcDbBlockBegin
  2
block 45
 70
     0
 71
     0
 10
0.0
 20
0.0
 30
0.0
  3
block 45
  1

  0
POLYLINE
  5
15C
330
158
100
AcDbEntity
  8
\U+5716\U+5C64 1
 62
     7
370
    25
100
AcDb2dPolyline
 66
     1
 10
0.0
 20
0.0
 30
0.0
  0
VERTEX
  5
15D
330
15C
100
AcDbEntity
  8
\U+5716\U+5C64 1
 62
     7
370
    25
100
AcDbVertex
100
AcDb2dVertex
 10
112.2881382839001
 20
226.0662813481186
 30
0.0
  0
VERTEX
  5
15E
330
15C
100
AcDbEntity
  8
\U+5716\U+5C64 1
 62
     7
370
    25
100
AcDbVertex
100
AcDb2dVertex
 10
105.490443642778
 20
232.8638037343528
 30
0.0
  0
SEQEND
  5
15F
330
15C
100
AcDbEntity
  8
\U+5716\U+5C64 1
370
    25
  0
ENDBLK
  5
15B
330
158
100
AcDbEntity
  8
0
100
AcDbBlockEnd
  0
BLOCK
  5
162
330
160
100
AcDbEntity
  8
0
100
AcDbBlockBegin
  2
block 46
 70
     0
 71
     0
 10
0.0
 20
0.0
 30
0.0
  3
block 46
  1

  0
SPLINE
  5
164
330
160
100
AcDbEntity
  8
\U+5716\U+5C64 1
 62
     7
370
    25
100
AcDbSpline
210
0.0
220
0.0
230
1.0
 70
     8
 71
     3
 72
    11
 73
     7
 74
     0
 42
0.0000000001
 43
0.0000000001
 40
0.0
 40
0.0
 40
0.0
 40
0.0
 40
1.0
 40
1.0
 40
1.0
 40
2.0
 40
2.0
 40
2.0
 40
2.0
 10
62.22621697874351
 20
284.550605397052
 30
0.0
 10
59.90043148234357
 20
282.2248199006521
 30
0.0
 10
59.90043148234357
 20
278.4538158947872
 30
0.0
 10
62.22621697874351
 20
276.1280303983873
 30
0.0
 10
62.22621697874351
 20
276.1280303983873
 30
0.0
 10
62.22621697874351
 20
276.1280303983873
 30
0.0
 10
62.22621697874351
 20
276.1280303983873
 30
0.0
  0
ENDBLK
  5
163
330
160
100
AcDbEntity
  8
0
100
AcDbBlockEnd
  0
BLOCK
  5
167
330
165
100
AcDbEntity
  8
0
100
AcDbBlockBegin
  2
block 47
 70
     0
 71
     0
 10
0.0
 20
0.0
 30
0.0
  3
block 47
  1

  0
POLYLINE
  5
169
330
165
100
AcDbEntity
  8
\U+5716\U+5C64 1
 62
     7
370
    25
100
AcDb2dPolyline
 66
     1
 10
0.0
 20
0.0
 30
0.0
  0
VERTEX
  5
16A
330
169
100
AcDbEntity
  8
\U+5716\U+5C64 1
 62
     7
370
    25
100
AcDbVertex
100
AcDb2dVertex
 10
62.22621697874351
 20
284.550605397052
 30
0.0
  0
VERTEX
  5
16B
330
169
100
AcDbEntity
  8
\U+5716\U+5C64 1
 62
     7
370
    25
100
AcDbVertex
100
AcDb2dVertex
 10
87.81829792864981
 20
310.1426863469583
 30
0.0
  0
SEQEND
  5
16C
330
169
100
AcDbEntity
  8
\U+5716\U+5C64 1
370
    25
  0
ENDBLK
  5
168
330
165
100
AcDbEntity
  8
0
100
AcDbBlockEnd
  0
BLOCK
  5
16F
330
16D
100
AcDbEntity
  8
0
100
AcDbBlockBegin
  2
block 48
 70
     0
 71
     0
 10
0.0
 20
0.0
 30
0.0
  3
block 48
  1

  0
SPLINE
  5
171
330
16D
100
AcDbEntity
  8
\U+5716\U+5C64 1
 62
     7
370
    25
100
AcDbSpline
210
0.0
220
0.0
230
1.0
 70
     8
 71
     3
 72
    11
 73
     7
 74
     0
 42
0.0000000001
 43
0.0000000001
 40
0.0
 40
0.0
 40
0.0
 40
0.0
 40
1.0
 40
1.0
 40
1.0
 40
2.0
 40
2.0
 40
2.0
 40
2.0
 10
120.7107132825648
 20
334.6123544473207
 30
0.0
 10
118.384755531277
 20
336.9383121986086
 30
0.0
 10
114.6139237803
 20
336.9383121986086
 30
0.0
 10
112.2881382839001
 20
334.6123544473207
 30
0.0
 10
112.2881382839001
 20
334.6123544473207
 30
0.0
 10
112.2881382839001
 20
334.6123544473207
 30
0.0
 10
112.2881382839001
 20
334.6123544473207
 30
0.0
  0
ENDBLK
  5
170
330
16D
100
AcDbEntity
  8
0
100
AcDbBlockEnd
  0
BLOCK
  5
174
330
172
100
AcDbEntity
  8
0
100
AcDbBlockBegin
  2
block 49
 70
     0
 71
     0
 10
0.0
 20
0.0
 30
0.0
  3
block 49
  1

  0
POLYLINE
  5
176
330
172
100
AcDbEntity
  8
\U+5716\U+5C64 1
 62
     7
370
    25
100
AcDb2dPolyline
 66
     1
 10
0.0
 20
0.0
 30
0.0
  0
VERTEX
  5
177
330
176
100
AcDbEntity
  8
\U+5716\U+5C64 1
 62
     7
370
    25
100
AcDbVertex
100
AcDb2dVertex
 10
120.7107132825648
 20
334.6123544473207
 30
0.0
  0
VERTEX
  5
178
330
176
100
AcDbEntity
  8
\U+5716\U+5C64 1
 62
     7
370
    25
100
AcDbVertex
100
AcDb2dVertex
 10
127.508235668799
 20
327.8148320610865
 30
0.0
  0
SEQEND
  5
179
330
176
100
AcDbEntity
  8
\U+5716\U+5C64 1
370
    25
  0
ENDBLK
  5
175
330
172
100
AcDbEntity
  8
0
100
AcDbBlockEnd
  0
BLOCK
  5
17C
330
17A
100
AcDbEntity
  8
0
100
AcDbBlockBegin
  2
block 50
 70
     0
 71
     0
 10
0.0
 20
0.0
 30
0.0
  3
block 50
  1

  0
SPLINE
  5
17E
330
17A
100
AcDbEntity
  8
\U+5716\U+5C64 1
 62
     7
370
    25
100
AcDbSpline
210
0.0
220
0.0
230
1.0
 70
     8
 71
     3
 72
    11
 73
     7
 74
     0
 42
0.0000000001
 43
0.0000000001
 40
0.0
 40
0.0
 40
0.0
 40
0.0
 40
1.0
 40
1.0
 40
1.0
 40
2.0
 40
2.0
 40
2.0
 40
2.0
 10
170.7724623328335
 20
276.1280303983873
 30
0.0
 10
173.0982478292335
 20
278.4538158947872
 30
0.0
 10
173.0982478292335
 20
282.2248199006521
 30
0.0
 10
170.7724623328335
 20
284.550605397052
 30
0.0
 10
170.7724623328335
 20
284.550605397052
 30
0.0
 10
170.7724623328335
 20
284.550605397052
 30
0.0
 10
170.7724623328335
 20
284.550605397052
 30
0.0
  0
ENDBLK
  5
17D
330
17A
100
AcDbEntity
  8
0
100
AcDbBlockEnd
  0
BLOCK
  5
181
330
17F
100
AcDbEntity
  8
0
100
AcDbBlockBegin
  2
block 51
 70
     0
 71
     0
 10
0.0
 20
0.0
 30
0.0
  3
block 51
  1

  0
POLYLINE
  5
183
330
17F
100
AcDbEntity
  8
\U+5716\U+5C64 1
 62
     7
370
    25
100
AcDb2dPolyline
 66
     1
 10
0.0
 20
0.0
 30
0.0
  0
VERTEX
  5
184
330
183
100
AcDbEntity
  8
\U+5716\U+5C64 1
 62
     7
370
    25
100
AcDbVertex
100
AcDb2dVertex
 10
170.7724623328335
 20
276.1280303983873
 30
0.0
  0
VERTEX
  5
185
330
183
100
AcDbEntity
  8
\U+5716\U+5C64 1
 62
     7
370
    25
100
AcDbVertex
100
AcDb2dVertex
 10
145.1803813829272
 20
250.535949448481
 30
0.0
  0
SEQEND
  5
186
330
183
100
AcDbEntity
  8
\U+5716\U+5C64 1
370
    25
  0
ENDBLK
  5
182
330
17F
100
AcDbEntity
  8
0
100
AcDbBlockEnd
  0
BLOCK
  5
189
330
187
100
AcDbEntity
  8
0
100
AcDbBlockBegin
  2
block 52
 70
     0
 71
     0
 10
0.0
 20
0.0
 30
0.0
  3
block 52
  1

  0
SPLINE
  5
18B
330
187
100
AcDbEntity
  8
\U+5716\U+5C64 1
 62
     7
370
    25
100
AcDbSpline
210
0.0
220
0.0
230
1.0
 70
     8
 71
     3
 72
    11
 73
     7
 74
     0
 42
0.0000000001
 43
0.0000000001
 40
0.0
 40
0.0
 40
0.0
 40
0.0
 40
1.0
 40
1.0
 40
1.0
 40
2.0
 40
2.0
 40
2.0
 40
2.0
 10
112.2881382839001
 20
226.0662813481186
 30
0.0
 10
114.6139237803
 20
223.7403235968308
 30
0.0
 10
118.384755531277
 20
223.7403235968308
 30
0.0
 10
120.7107132825648
 20
226.0662813481186
 30
0.0
 10
120.7107132825648
 20
226.0662813481186
 30
0.0
 10
120.7107132825648
 20
226.0662813481186
 30
0.0
 10
120.7107132825648
 20
226.0662813481186
 30
0.0
  0
ENDBLK
  5
18A
330
187
100
AcDbEntity
  8
0
100
AcDbBlockEnd
  0
BLOCK
  5
18E
330
18C
100
AcDbEntity
  8
0
100
AcDbBlockBegin
  2
block 53
 70
     0
 71
     0
 10
0.0
 20
0.0
 30
0.0
  3
block 53
  1

  0
POLYLINE
  5
190
330
18C
100
AcDbEntity
  8
\U+5716\U+5C64 1
 62
     7
370
    25
100
AcDb2dPolyline
 66
     1
 10
0.0
 20
0.0
 30
0.0
  0
VERTEX
  5
191
330
190
100
AcDbEntity
  8
\U+5716\U+5C64 1
 62
     7
370
    25
100
AcDbVertex
100
AcDb2dVertex
 10
127.508235668799
 20
232.8638037343528
 30
0.0
  0
VERTEX
  5
192
330
190
100
AcDbEntity
  8
\U+5716\U+5C64 1
 62
     7
370
    25
100
AcDbVertex
100
AcDb2dVertex
 10
120.7107132825648
 20
226.0662813481186
 30
0.0
  0
SEQEND
  5
193
330
190
100
AcDbEntity
  8
\U+5716\U+5C64 1
370
    25
  0
ENDBLK
  5
18F
330
18C
100
AcDbEntity
  8
0
100
AcDbBlockEnd
  0
BLOCK
  5
196
330
194
100
AcDbEntity
  8
0
100
AcDbBlockBegin
  2
block 54
 70
     0
 71
     0
 10
0.0
 20
0.0
 30
0.0
  3
block 54
  1

  0
POLYLINE
  5
198
330
194
100
AcDbEntity
  8
\U+5716\U+5C64 1
 62
     7
370
    25
100
AcDb2dPolyline
 66
     1
 10
0.0
 20
0.0
 30
0.0
  0
VERTEX
  5
199
330
198
100
AcDbEntity
  8
\U+5716\U+5C64 1
 62
     7
370
    25
100
AcDbVertex
100
AcDb2dVertex
 10
87.81829792864981
 20
250.535949448481
 30
0.0
  0
VERTEX
  5
19A
330
198
100
AcDbEntity
  8
\U+5716\U+5C64 1
 62
     7
370
    25
100
AcDbVertex
100
AcDb2dVertex
 10
62.22621697874351
 20
276.1280303983873
 30
0.0
  0
SEQEND
  5
19B
330
198
100
AcDbEntity
  8
\U+5716\U+5C64 1
370
    25
  0
ENDBLK
  5
197
330
194
100
AcDbEntity
  8
0
100
AcDbBlockEnd
  0
BLOCK
  5
19E
330
19C
100
AcDbEntity
  8
0
100
AcDbBlockBegin
  2
block 55
 70
     0
 71
     0
 10
0.0
 20
0.0
 30
0.0
  3
block 55
  1

  0
POLYLINE
  5
1A0
330
19C
100
AcDbEntity
  8
\U+5716\U+5C64 1
 62
     7
370
    25
100
AcDb2dPolyline
 66
     1
 10
0.0
 20
0.0
 30
0.0
  0
VERTEX
  5
1A1
330
1A0
100
AcDbEntity
  8
\U+5716\U+5C64 1
 62
     7
370
    25
100
AcDbVertex
100
AcDb2dVertex
 10
105.490443642778
 20
327.8148320610865
 30
0.0
  0
VERTEX
  5
1A2
330
1A0
100
AcDbEntity
  8
\U+5716\U+5C64 1
 62
     7
370
    25
100
AcDbVertex
100
AcDb2dVertex
 10
112.2881382839001
 20
334.6123544473207
 30
0.0
  0
SEQEND
  5
1A3
330
1A0
100
AcDbEntity
  8
\U+5716\U+5C64 1
370
    25
  0
ENDBLK
  5
19F
330
19C
100
AcDbEntity
  8
0
100
AcDbBlockEnd
  0
BLOCK
  5
1A6
330
1A4
100
AcDbEntity
  8
0
100
AcDbBlockBegin
  2
block 56
 70
     0
 71
     0
 10
0.0
 20
0.0
 30
0.0
  3
block 56
  1

  0
POLYLINE
  5
1A8
330
1A4
100
AcDbEntity
  8
\U+5716\U+5C64 1
 62
     7
370
    25
100
AcDb2dPolyline
 66
     1
 10
0.0
 20
0.0
 30
0.0
  0
VERTEX
  5
1A9
330
1A8
100
AcDbEntity
  8
\U+5716\U+5C64 1
 62
     7
370
    25
100
AcDbVertex
100
AcDb2dVertex
 10
145.1803813829272
 20
310.1426863469583
 30
0.0
  0
VERTEX
  5
1AA
330
1A8
100
AcDbEntity
  8
\U+5716\U+5C64 1
 62
     7
370
    25
100
AcDbVertex
100
AcDb2dVertex
 10
170.7724623328335
 20
284.550605397052
 30
0.0
  0
SEQEND
  5
1AB
330
1A8
100
AcDbEntity
  8
\U+5716\U+5C64 1
370
    25
  0
ENDBLK
  5
1A7
330
1A4
100
AcDbEntity
  8
0
100
AcDbBlockEnd
  0
BLOCK
  5
1AE
330
1AC
100
AcDbEntity
  8
0
100
AcDbBlockBegin
  2
block 57
 70
     0
 71
     0
 10
0.0
 20
0.0
 30
0.0
  3
block 57
  1

  0
POLYLINE
  5
1B0
330
1AC
100
AcDbEntity
  8
\U+5716\U+5C64 1
  6
AI-Linetype-5
 62
     3
370
    25
100
AcDb2dPolyline
 66
     1
 10
0.0
 20
0.0
 30
0.0
  0
VERTEX
  5
1B1
330
1B0
100
AcDbEntity
  8
\U+5716\U+5C64 1
  6
AI-Linetype-5
 62
     3
370
    25
100
AcDbVertex
100
AcDb2dVertex
 10
138.8331332736586
 20
154.2601087789231
 30
0.0
  0
VERTEX
  5
1B2
330
1B0
100
AcDbEntity
  8
\U+5716\U+5C64 1
  6
AI-Linetype-5
 62
     3
370
    25
100
AcDbVertex
100
AcDb2dVertex
 10
94.16554603791842
 20
154.2601087789231
 30
0.0
  0
SEQEND
  5
1B3
330
1B0
100
AcDbEntity
  8
\U+5716\U+5C64 1
  6
AI-Linetype-5
370
    25
  0
ENDBLK
  5
1AF
330
1AC
100
AcDbEntity
  8
0
100
AcDbBlockEnd
  0
BLOCK
  5
1B7
330
1B5
100
AcDbEntity
  8
0
100
AcDbBlockBegin
  2
block 58
 70
     0
 71
     0
 10
0.0
 20
0.0
 30
0.0
  3
block 58
  1

  0
POLYLINE
  5
1B9
330
1B5
100
AcDbEntity
  8
\U+5716\U+5C64 1
  6
AI-Linetype-6
 62
     3
370
    25
100
AcDb2dPolyline
 66
     1
 10
0.0
 20
0.0
 30
0.0
  0
VERTEX
  5
1BA
330
1B9
100
AcDbEntity
  8
\U+5716\U+5C64 1
  6
AI-Linetype-6
 62
     3
370
    25
100
AcDbVertex
100
AcDb2dVertex
 10
132.8774205245823
 20
143.0931689062661
 30
0.0
  0
VERTEX
  5
1BB
330
1B9
100
AcDbEntity
  8
\U+5716\U+5C64 1
  6
AI-Linetype-6
 62
     3
370
    25
100
AcDbVertex
100
AcDb2dVertex
 10
100.1212587869947
 20
143.0931689062661
 30
0.0
  0
SEQEND
  5
1BC
330
1B9
100
AcDbEntity
  8
\U+5716\U+5C64 1
  6
AI-Linetype-6
370
    25
  0
ENDBLK
  5
1B8
330
1B5
100
AcDbEntity
  8
0
100
AcDbBlockEnd
  0
BLOCK
  5
1C0
330
1BE
100
AcDbEntity
  8
0
100
AcDbBlockBegin
  2
block 59
 70
     0
 71
     0
 10
0.0
 20
0.0
 30
0.0
  3
block 59
  1

  0
POLYLINE
  5
1C2
330
1BE
100
AcDbEntity
  8
\U+5716\U+5C64 1
 62
     7
370
    25
100
AcDb2dPolyline
 66
     1
 10
0.0
 20
0.0
 30
0.0
  0
VERTEX
  5
1C3
330
1C2
100
AcDbEntity
  8
\U+5716\U+5C64 1
 62
     7
370
    25
100
AcDbVertex
100
AcDb2dVertex
 10
163.7561762389687
 20
129.6931166668983
 30
0.0
  0
VERTEX
  5
1C4
330
1C2
100
AcDbEntity
  8
\U+5716\U+5C64 1
 62
     7
370
    25
100
AcDbVertex
100
AcDb2dVertex
 10
69.24267532749619
 20
129.6931166668983
 30
0.0
  0
SEQEND
  5
1C5
330
1C2
100
AcDbEntity
  8
\U+5716\U+5C64 1
370
    25
  0
ENDBLK
  5
1C1
330
1BE
100
AcDbEntity
  8
0
100
AcDbBlockEnd
  0
BLOCK
  5
1C8
330
1C6
100
AcDbEntity
  8
0
100
AcDbBlockBegin
  2
block 60
 70
     0
 71
     0
 10
0.0
 20
0.0
 30
0.0
  3
block 60
  1

  0
POLYLINE
  5
1CA
330
1C6
100
AcDbEntity
  8
\U+5716\U+5C64 1
 62
     7
370
    25
100
AcDb2dPolyline
 66
     1
 10
0.0
 20
0.0
 30
0.0
  0
VERTEX
  5
1CB
330
1CA
100
AcDbEntity
  8
\U+5716\U+5C64 1
 62
     7
370
    25
100
AcDbVertex
100
AcDb2dVertex
 10
60.4819639838875
 20
159.3226799342478
 30
0.0
  0
VERTEX
  5
1CC
330
1CA
100
AcDbEntity
  8
\U+5716\U+5C64 1
 62
     7
370
    25
100
AcDbVertex
100
AcDb2dVertex
 10
172.5167153276895
 20
159.3226799342478
 30
0.0
  0
SEQEND
  5
1CD
330
1CA
100
AcDbEntity
  8
\U+5716\U+5C64 1
370
    25
  0
ENDBLK
  5
1C9
330
1C6
100
AcDbEntity
  8
0
100
AcDbBlockEnd
  0
BLOCK
  5
1D0
330
1CE
100
AcDbEntity
  8
0
100
AcDbBlockBegin
  2
block 61
 70
     0
 71
     0
 10
0.0
 20
0.0
 30
0.0
  3
block 61
  1

  0
POLYLINE
  5
1D2
330
1CE
100
AcDbEntity
  8
\U+5716\U+5C64 1
 62
     7
370
    25
100
AcDb2dPolyline
 66
     1
 10
0.0
 20
0.0
 30
0.0
  0
VERTEX
  5
1D3
330
1D2
100
AcDbEntity
  8
\U+5716\U+5C64 1
 62
     7
370
    25
100
AcDbVertex
100
AcDb2dVertex
 10
69.24267532749619
 20
129.6931166668983
 30
0.0
  0
VERTEX
  5
1D4
330
1D2
100
AcDbEntity
  8
\U+5716\U+5C64 1
 62
     7
370
    25
100
AcDbVertex
100
AcDb2dVertex
 10
60.4819639838875
 20
159.3226799342478
 30
0.0
  0
SEQEND
  5
1D5
330
1D2
100
AcDbEntity
  8
\U+5716\U+5C64 1
370
    25
  0
ENDBLK
  5
1D1
330
1CE
100
AcDbEntity
  8
0
100
AcDbBlockEnd
  0
BLOCK
  5
1D8
330
1D6
100
AcDbEntity
  8
0
100
AcDbBlockBegin
  2
block 62
 70
     0
 71
     0
 10
0.0
 20
0.0
 30
0.0
  3
block 62
  1

  0
POLYLINE
  5
1DA
330
1D6
100
AcDbEntity
  8
\U+5716\U+5C64 1
  6
AI-Linetype-7
 62
     4
370
    25
100
AcDb2dPolyline
 66
     1
 10
0.0
 20
0.0
 30
0.0
  0
VERTEX
  5
1DB
330
1DA
100
AcDbEntity
  8
\U+5716\U+5C64 1
  6
AI-Linetype-7
 62
     4
370
    25
100
AcDbVertex
100
AcDb2dVertex
 10
116.4994257832325
 20
163.0447635519496
 30
0.0
  0
VERTEX
  5
1DC
330
1DA
100
AcDbEntity
  8
\U+5716\U+5C64 1
  6
AI-Linetype-7
 62
     4
370
    25
100
AcDbVertex
100
AcDb2dVertex
 10
116.4994257832325
 20
125.9706885394207
 30
0.0
  0
SEQEND
  5
1DD
330
1DA
100
AcDbEntity
  8
\U+5716\U+5C64 1
  6
AI-Linetype-7
370
    25
  0
ENDBLK
  5
1D9
330
1D6
100
AcDbEntity
  8
0
100
AcDbBlockEnd
  0
BLOCK
  5
1E1
330
1DF
100
AcDbEntity
  8
0
100
AcDbBlockBegin
  2
block 63
 70
     0
 71
     0
 10
0.0
 20
0.0
 30
0.0
  3
block 63
  1

  0
SPLINE
  5
1E3
330
1DF
100
AcDbEntity
  8
\U+5716\U+5C64 1
  6
AI-Linetype-8
 62
     3
370
    25
100
AcDbSpline
210
0.0
220
0.0
230
1.0
 70
     8
 71
     3
 72
     8
 73
     4
 74
     0
 42
0.0000000001
 43
0.0000000001
 40
0.0
 40
0.0
 40
0.0
 40
0.0
 40
1.0
 40
1.0
 40
1.0
 40
1.0
 10
100.1212587869947
 20
143.0931689062661
 30
0.0
 10
100.1457189810762
 20
147.0471076030788
 30
0.0
 10
97.46250459228776
 20
152.0779838590302
 30
0.0
 10
94.16554603791842
 20
154.2601087789231
 30
0.0
  0
ENDBLK
  5
1E2
330
1DF
100
AcDbEntity
  8
0
100
AcDbBlockEnd
  0
BLOCK
  5
1E7
330
1E5
100
AcDbEntity
  8
0
100
AcDbBlockBegin
  2
block 64
 70
     0
 71
     0
 10
0.0
 20
0.0
 30
0.0
  3
block 64
  1

  0
POLYLINE
  5
1E9
330
1E5
100
AcDbEntity
  8
\U+5716\U+5C64 1
  6
AI-Linetype-9
 62
     3
370
    25
100
AcDb2dPolyline
 66
     1
 10
0.0
 20
0.0
 30
0.0
  0
VERTEX
  5
1EA
330
1E9
100
AcDbEntity
  8
\U+5716\U+5C64 1
  6
AI-Linetype-9
 62
     3
370
    25
100
AcDbVertex
100
AcDb2dVertex
 10
100.1212587869947
 20
143.0931689062661
 30
0.0
  0
VERTEX
  5
1EB
330
1E9
100
AcDbEntity
  8
\U+5716\U+5C64 1
  6
AI-Linetype-9
 62
     3
370
    25
100
AcDbVertex
100
AcDb2dVertex
 10
100.1212587869947
 20
129.6931166668983
 30
0.0
  0
SEQEND
  5
1EC
330
1E9
100
AcDbEntity
  8
\U+5716\U+5C64 1
  6
AI-Linetype-9
370
    25
  0
ENDBLK
  5
1E8
330
1E5
100
AcDbEntity
  8
0
100
AcDbBlockEnd
  0
BLOCK
  5
1F0
330
1EE
100
AcDbEntity
  8
0
100
AcDbBlockBegin
  2
block 65
 70
     0
 71
     0
 10
0.0
 20
0.0
 30
0.0
  3
block 65
  1

  0
POLYLINE
  5
1F2
330
1EE
100
AcDbEntity
  8
\U+5716\U+5C64 1
  6
AI-Linetype-10
 62
     3
370
    25
100
AcDb2dPolyline
 66
     1
 10
0.0
 20
0.0
 30
0.0
  0
VERTEX
  5
1F3
330
1F2
100
AcDbEntity
  8
\U+5716\U+5C64 1
  6
AI-Linetype-10
 62
     3
370
    25
100
AcDbVertex
100
AcDb2dVertex
 10
94.16554603791842
 20
159.3226799342478
 30
0.0
  0
VERTEX
  5
1F4
330
1F2
100
AcDbEntity
  8
\U+5716\U+5C64 1
  6
AI-Linetype-10
 62
     3
370
    25
100
AcDbVertex
100
AcDb2dVertex
 10
94.16554603791842
 20
154.2601087789231
 30
0.0
  0
SEQEND
  5
1F5
330
1F2
100
AcDbEntity
  8
\U+5716\U+5C64 1
  6
AI-Linetype-10
370
    25
  0
ENDBLK
  5
1F1
330
1EE
100
AcDbEntity
  8
0
100
AcDbBlockEnd
  0
BLOCK
  5
1F9
330
1F7
100
AcDbEntity
  8
0
100
AcDbBlockBegin
  2
block 66
 70
     0
 71
     0
 10
0.0
 20
0.0
 30
0.0
  3
block 66
  1

  0
SPLINE
  5
1FB
330
1F7
100
AcDbEntity
  8
\U+5716\U+5C64 1
  6
AI-Linetype-11
 62
     3
370
    25
100
AcDbSpline
210
0.0
220
0.0
230
1.0
 70
     8
 71
     3
 72
     8
 73
     4
 74
     0
 42
0.0000000001
 43
0.0000000001
 40
0.0
 40
0.0
 40
0.0
 40
0.0
 40
1.0
 40
1.0
 40
1.0
 40
1.0
 10
138.8331332736586
 20
154.2601087789231
 30
0.0
 10
135.5361747192892
 20
152.0779838590302
 30
0.0
 10
132.8529603305008
 20
147.0471076030788
 30
0.0
 10
132.8774205245823
 20
143.0931689062661
 30
0.0
  0
ENDBLK
  5
1FA
330
1F7
100
AcDbEntity
  8
0
100
AcDbBlockEnd
  0
BLOCK
  5
1FF
330
1FD
100
AcDbEntity
  8
0
100
AcDbBlockBegin
  2
block 67
 70
     0
 71
     0
 10
0.0
 20
0.0
 30
0.0
  3
block 67
  1

  0
POLYLINE
  5
201
330
1FD
100
AcDbEntity
  8
\U+5716\U+5C64 1
  6
AI-Linetype-12
 62
     3
370
    25
100
AcDb2dPolyline
 66
     1
 10
0.0
 20
0.0
 30
0.0
  0
VERTEX
  5
202
330
201
100
AcDbEntity
  8
\U+5716\U+5C64 1
  6
AI-Linetype-12
 62
     3
370
    25
100
AcDbVertex
100
AcDb2dVertex
 10
132.8774205245823
 20
143.0931689062661
 30
0.0
  0
VERTEX
  5
203
330
201
100
AcDbEntity
  8
\U+5716\U+5C64 1
  6
AI-Linetype-12
 62
     3
370
    25
100
AcDbVertex
100
AcDb2dVertex
 10
132.8774205245823
 20
129.6931166668983
 30
0.0
  0
SEQEND
  5
204
330
201
100
AcDbEntity
  8
\U+5716\U+5C64 1
  6
AI-Linetype-12
370
    25
  0
ENDBLK
  5
200
330
1FD
100
AcDbEntity
  8
0
100
AcDbBlockEnd
  0
BLOCK
  5
208
330
206
100
AcDbEntity
  8
0
100
AcDbBlockBegin
  2
block 68
 70
     0
 71
     0
 10
0.0
 20
0.0
 30
0.0
  3
block 68
  1

  0
POLYLINE
  5
20A
330
206
100
AcDbEntity
  8
\U+5716\U+5C64 1
  6
AI-Linetype-13
 62
     3
370
    25
100
AcDb2dPolyline
 66
     1
 10
0.0
 20
0.0
 30
0.0
  0
VERTEX
  5
20B
330
20A
100
AcDbEntity
  8
\U+5716\U+5C64 1
  6
AI-Linetype-13
 62
     3
370
    25
100
AcDbVertex
100
AcDb2dVertex
 10
138.8331332736586
 20
159.3226799342478
 30
0.0
  0
VERTEX
  5
20C
330
20A
100
AcDbEntity
  8
\U+5716\U+5C64 1
  6
AI-Linetype-13
 62
     3
370
    25
100
AcDbVertex
100
AcDb2dVertex
 10
138.8331332736586
 20
154.2601087789231
 30
0.0
  0
SEQEND
  5
20D
330
20A
100
AcDbEntity
  8
\U+5716\U+5C64 1
  6
AI-Linetype-13
370
    25
  0
ENDBLK
  5
209
330
206
100
AcDbEntity
  8
0
100
AcDbBlockEnd
  0
BLOCK
  5
211
330
20F
100
AcDbEntity
  8
0
100
AcDbBlockBegin
  2
block 69
 70
     0
 71
     0
 10
0.0
 20
0.0
 30
0.0
  3
block 69
  1

  0
POLYLINE
  5
213
330
20F
100
AcDbEntity
  8
\U+5716\U+5C64 1
 62
     7
370
    25
100
AcDb2dPolyline
 66
     1
 10
0.0
 20
0.0
 30
0.0
  0
VERTEX
  5
214
330
213
100
AcDbEntity
  8
\U+5716\U+5C64 1
 62
     7
370
    25
100
AcDbVertex
100
AcDb2dVertex
 10
172.5167153276895
 20
159.3226799342478
 30
0.0
  0
VERTEX
  5
215
330
213
100
AcDbEntity
  8
\U+5716\U+5C64 1
 62
     7
370
    25
100
AcDbVertex
100
AcDb2dVertex
 10
163.7561762389687
 20
129.6931166668983
 30
0.0
  0
SEQEND
  5
216
330
213
100
AcDbEntity
  8
\U+5716\U+5C64 1
370
    25
  0
ENDBLK
  5
212
330
20F
100
AcDbEntity
  8
0
100
AcDbBlockEnd
  0
BLOCK
  5
219
330
217
100
AcDbEntity
  8
0
100
AcDbBlockBegin
  2
block 70
 70
     0
 71
     0
 10
0.0
 20
0.0
 30
0.0
  3
block 70
  1

  0
POLYLINE
  5
21B
330
217
100
AcDbEntity
  8
\U+5716\U+5C64 1
  6
AI-Linetype-14
 62
     3
370
    25
100
AcDb2dPolyline
 66
     1
 10
0.0
 20
0.0
 30
0.0
  0
VERTEX
  5
21C
330
21B
100
AcDbEntity
  8
\U+5716\U+5C64 1
  6
AI-Linetype-14
 62
     3
370
    25
100
AcDbVertex
100
AcDb2dVertex
 10
116.4994257832325
 20
327.596068353456
 30
0.0
  0
VERTEX
  5
21D
330
21B
100
AcDbEntity
  8
\U+5716\U+5C64 1
  6
AI-Linetype-14
 62
     3
370
    25
100
AcDbVertex
100
AcDb2dVertex
 10
163.7561762389687
 20
280.3393178977196
 30
0.0
  0
SEQEND
  5
21E
330
21B
100
AcDbEntity
  8
\U+5716\U+5C64 1
  6
AI-Linetype-14
370
    25
  0
ENDBLK
  5
21A
330
217
100
AcDbEntity
  8
0
100
AcDbBlockEnd
  0
BLOCK
  5
222
330
220
100
AcDbEntity
  8
0
100
AcDbBlockBegin
  2
block 71
 70
     0
 71
     0
 10
0.0
 20
0.0
 30
0.0
  3
block 71
  1

  0
POLYLINE
  5
224
330
220
100
AcDbEntity
  8
\U+5716\U+5C64 1
  6
AI-Linetype-15
 62
     3
370
    25
100
AcDb2dPolyline
 66
     1
 10
0.0
 20
0.0
 30
0.0
  0
VERTEX
  5
225
330
224
100
AcDbEntity
  8
\U+5716\U+5C64 1
  6
AI-Linetype-15
 62
     3
370
    25
100
AcDbVertex
100
AcDb2dVertex
 10
163.7561762389687
 20
280.3393178977196
 30
0.0
  0
VERTEX
  5
226
330
224
100
AcDbEntity
  8
\U+5716\U+5C64 1
  6
AI-Linetype-15
 62
     3
370
    25
100
AcDbVertex
100
AcDb2dVertex
 10
116.4994257832325
 20
233.0825674419834
 30
0.0
  0
SEQEND
  5
227
330
224
100
AcDbEntity
  8
\U+5716\U+5C64 1
  6
AI-Linetype-15
370
    25
  0
ENDBLK
  5
223
330
220
100
AcDbEntity
  8
0
100
AcDbBlockEnd
  0
BLOCK
  5
22B
330
229
100
AcDbEntity
  8
0
100
AcDbBlockBegin
  2
block 72
 70
     0
 71
     0
 10
0.0
 20
0.0
 30
0.0
  3
block 72
  1

  0
POLYLINE
  5
22D
330
229
100
AcDbEntity
  8
\U+5716\U+5C64 1
  6
AI-Linetype-16
 62
     3
370
    25
100
AcDb2dPolyline
 66
     1
 10
0.0
 20
0.0
 30
0.0
  0
VERTEX
  5
22E
330
22D
100
AcDbEntity
  8
\U+5716\U+5C64 1
  6
AI-Linetype-16
 62
     3
370
    25
100
AcDbVertex
100
AcDb2dVertex
 10
69.24267532749619
 20
280.3393178977196
 30
0.0
  0
VERTEX
  5
22F
330
22D
100
AcDbEntity
  8
\U+5716\U+5C64 1
  6
AI-Linetype-16
 62
     3
370
    25
100
AcDbVertex
100
AcDb2dVertex
 10
116.4994257832325
 20
327.596068353456
 30
0.0
  0
SEQEND
  5
230
330
22D
100
AcDbEntity
  8
\U+5716\U+5C64 1
  6
AI-Linetype-16
370
    25
  0
ENDBLK
  5
22C
330
229
100
AcDbEntity
  8
0
100
AcDbBlockEnd
  0
BLOCK
  5
234
330
232
100
AcDbEntity
  8
0
100
AcDbBlockBegin
  2
block 73
 70
     0
 71
     0
 10
0.0
 20
0.0
 30
0.0
  3
block 73
  1

  0
POLYLINE
  5
236
330
232
100
AcDbEntity
  8
\U+5716\U+5C64 1
  6
AI-Linetype-17
 62
     3
370
    25
100
AcDb2dPolyline
 66
     1
 10
0.0
 20
0.0
 30
0.0
  0
VERTEX
  5
237
330
236
100
AcDbEntity
  8
\U+5716\U+5C64 1
  6
AI-Linetype-17
 62
     3
370
    25
100
AcDbVertex
100
AcDb2dVertex
 10
116.4994257832325
 20
233.0825674419834
 30
0.0
  0
VERTEX
  5
238
330
236
100
AcDbEntity
  8
\U+5716\U+5C64 1
  6
AI-Linetype-17
 62
     3
370
    25
100
AcDbVertex
100
AcDb2dVertex
 10
69.24267532749619
 20
280.3393178977196
 30
0.0
  0
SEQEND
  5
239
330
236
100
AcDbEntity
  8
\U+5716\U+5C64 1
  6
AI-Linetype-17
370
    25
  0
ENDBLK
  5
235
330
232
100
AcDbEntity
  8
0
100
AcDbBlockEnd
  0
BLOCK
  5
23D
330
23B
100
AcDbEntity
  8
0
100
AcDbBlockBegin
  2
block 74
 70
     0
 71
     0
 10
0.0
 20
0.0
 30
0.0
  3
block 74
  1

  0
INSERT
  5
240
330
23B
100
AcDbEntity
  8
\U+5716\U+5C64 1
100
AcDbBlockReference
  2
block 75
 10
0.0
 20
0.0
 30
0.0
  0
ENDBLK
  5
23E
330
23B
100
AcDbEntity
  8
0
100
AcDbBlockEnd
  0
BLOCK
  5
241
330
23F
100
AcDbEntity
  8
0
100
AcDbBlockBegin
  2
block 75
 70
     0
 71
     0
 10
0.0
 20
0.0
 30
0.0
  3
block 75
  1

  0
INSERT
  5
244
330
23F
100
AcDbEntity
  8
\U+5716\U+5C64 1
100
AcDbBlockReference
  2
block 76
 10
0.0
 20
0.0
 30
0.0
  0
INSERT
  5
24C
330
23F
100
AcDbEntity
  8
\U+5716\U+5C64 1
100
AcDbBlockReference
  2
block 77
 10
0.0
 20
0.0
 30
0.0
  0
INSERT
  5
254
330
23F
100
AcDbEntity
  8
\U+5716\U+5C64 1
100
AcDbBlockReference
  2
block 78
 10
0.0
 20
0.0
 30
0.0
  0
INSERT
  5
25C
330
23F
100
AcDbEntity
  8
\U+5716\U+5C64 1
100
AcDbBlockReference
  2
block 79
 10
0.0
 20
0.0
 30
0.0
  0
INSERT
  5
267
330
23F
100
AcDbEntity
  8
\U+5716\U+5C64 1
100
AcDbBlockReference
  2
block 80
 10
0.0
 20
0.0
 30
0.0
  0
INSERT
  5
272
330
23F
100
AcDbEntity
  8
\U+5716\U+5C64 1
100
AcDbBlockReference
  2
block 81
 10
0.0
 20
0.0
 30
0.0
  0
INSERT
  5
277
330
23F
100
AcDbEntity
  8
\U+5716\U+5C64 1
100
AcDbBlockReference
  2
block 82
 10
0.0
 20
0.0
 30
0.0
  0
INSERT
  5
27F
330
23F
100
AcDbEntity
  8
\U+5716\U+5C64 1
100
AcDbBlockReference
  2
block 83
 10
0.0
 20
0.0
 30
0.0
  0
INSERT
  5
287
330
23F
100
AcDbEntity
  8
\U+5716\U+5C64 1
100
AcDbBlockReference
  2
block 84
 10
0.0
 20
0.0
 30
0.0
  0
ENDBLK
  5
242
330
23F
100
AcDbEntity
  8
0
100
AcDbBlockEnd
  0
BLOCK
  5
245
330
243
100
AcDbEntity
  8
0
100
AcDbBlockBegin
  2
block 76
 70
     0
 71
     0
 10
0.0
 20
0.0
 30
0.0
  3
block 76
  1

  0
POLYLINE
  5
247
330
243
100
AcDbEntity
  8
\U+5716\U+5C64 1
 62
     2
370
    25
100
AcDb2dPolyline
 66
     1
 10
0.0
 20
0.0
 30
0.0
  0
VERTEX
  5
248
330
247
100
AcDbEntity
  8
\U+5716\U+5C64 1
 62
     2
370
    25
100
AcDbVertex
100
AcDb2dVertex
 10
119.1314804703152
 20
224.487048535869
 30
0.0
  0
VERTEX
  5
249
330
247
100
AcDbEntity
  8
\U+5716\U+5C64 1
 62
     2
370
    25
100
AcDbVertex
100
AcDb2dVertex
 10
93.97468762212735
 20
199.3302556876811
 30
0.0
  0
SEQEND
  5
24A
330
247
100
AcDbEntity
  8
\U+5716\U+5C64 1
370
    25
  0
ENDBLK
  5
246
330
243
100
AcDbEntity
  8
0
100
AcDbBlockEnd
  0
BLOCK
  5
24D
330
24B
100
AcDbEntity
  8
0
100
AcDbBlockBegin
  2
block 77
 70
     0
 71
     0
 10
0.0
 20
0.0
 30
0.0
  3
block 77
  1

  0
POLYLINE
  5
24F
330
24B
100
AcDbEntity
  8
\U+5716\U+5C64 1
 62
     2
370
    25
100
AcDb2dPolyline
 66
     1
 10
0.0
 20
0.0
 30
0.0
  0
VERTEX
  5
250
330
24F
100
AcDbEntity
  8
\U+5716\U+5C64 1
 62
     2
370
    25
100
AcDbVertex
100
AcDb2dVertex
 10
60.64698416649387
 20
282.9713725848024
 30
0.0
  0
VERTEX
  5
251
330
24F
100
AcDbEntity
  8
\U+5716\U+5C64 1
 62
     2
370
    25
100
AcDbVertex
100
AcDb2dVertex
 10
35.49036357319392
 20
257.8145797366146
 30
0.0
  0
SEQEND
  5
252
330
24F
100
AcDbEntity
  8
\U+5716\U+5C64 1
370
    25
  0
ENDBLK
  5
24E
330
24B
100
AcDbEntity
  8
0
100
AcDbBlockEnd
  0
BLOCK
  5
255
330
253
100
AcDbEntity
  8
0
100
AcDbBlockBegin
  2
block 78
 70
     0
 71
     0
 10
0.0
 20
0.0
 30
0.0
  3
block 78
  1

  0
POLYLINE
  5
257
330
253
100
AcDbEntity
  8
\U+5716\U+5C64 1
 62
     2
370
    25
100
AcDb2dPolyline
 66
     1
 10
0.0
 20
0.0
 30
0.0
  0
VERTEX
  5
258
330
257
100
AcDbEntity
  8
\U+5716\U+5C64 1
 62
     2
370
    25
100
AcDbVertex
100
AcDb2dVertex
 10
92.92186574729425
 20
203.5415431870135
 30
0.0
  0
VERTEX
  5
259
330
257
100
AcDbEntity
  8
\U+5716\U+5C64 1
 62
     2
370
    25
100
AcDbVertex
100
AcDb2dVertex
 10
39.7016510725263
 20
256.7617578617815
 30
0.0
  0
SEQEND
  5
25A
330
257
100
AcDbEntity
  8
\U+5716\U+5C64 1
370
    25
  0
ENDBLK
  5
256
330
253
100
AcDbEntity
  8
0
100
AcDbBlockEnd
  0
BLOCK
  5
25D
330
25B
100
AcDbEntity
  8
0
100
AcDbBlockBegin
  2
block 79
 70
     0
 71
     0
 10
0.0
 20
0.0
 30
0.0
  3
block 79
  1

  0
POLYLINE
  5
25F
330
25B
100
AcDbEntity
  8
\U+5716\U+5C64 1
370
     0
100
AcDb2dPolyline
 66
     1
 10
0.0
 20
0.0
 30
0.0
  0
VERTEX
  5
260
330
25F
100
AcDbEntity
  8
\U+5716\U+5C64 1
370
     0
100
AcDbVertex
100
AcDb2dVertex
 10
93.36059894677068
 20
203.980104131602
 30
0.0
  0
VERTEX
  5
261
330
25F
100
AcDbEntity
  8
\U+5716\U+5C64 1
370
     0
100
AcDbVertex
100
AcDb2dVertex
 10
92.48313254781783
 20
203.102982242425
 30
0.0
  0
VERTEX
  5
262
330
25F
100
AcDbEntity
  8
\U+5716\U+5C64 1
370
     0
100
AcDbVertex
100
AcDb2dVertex
 10
95.55392043437698
 20
200.9094884999308
 30
0.0
  0
VERTEX
  5
263
330
25F
100
AcDbEntity
  8
\U+5716\U+5C64 1
370
     0
100
AcDbVertex
100
AcDb2dVertex
 10
93.36059894677068
 20
203.980104131602
 30
0.0
  0
SEQEND
  5
264
330
25F
100
AcDbEntity
  8
\U+5716\U+5C64 1
370
     0
  0
HATCH
  5
265
330
25B
100
AcDbEntity
  8
\U+5716\U+5C64 1
 62
     2
100
AcDbHatch
 10
0.0
 20
0.0
 30
0.0
210
0.0
220
0.0
230
1.0
  2
SOLID
 70
     1
 71
     0
 91
        1
 92
        1
 93
        3
 72
     1
 10
93.36059894677068
 20
203.980104131602
 11
92.48313254781783
 21
203.102982242425
 72
     1
 10
92.48313254781783
 20
203.102982242425
 11
95.55392043437698
 21
200.9094884999308
 72
     1
 10
95.55392043437698
 20
200.9094884999308
 11
93.36059894677068
 21
203.980104131602
 97
        0
 75
     2
 76
     1
 98
        0
  0
ENDBLK
  5
25E
330
25B
100
AcDbEntity
  8
0
100
AcDbBlockEnd
  0
BLOCK
  5
268
330
266
100
AcDbEntity
  8
0
100
AcDbBlockBegin
  2
block 80
 70
     0
 71
     0
 10
0.0
 20
0.0
 30
0.0
  3
block 80
  1

  0
POLYLINE
  5
26A
330
266
100
AcDbEntity
  8
\U+5716\U+5C64 1
370
     0
100
AcDb2dPolyline
 66
     1
 10
0.0
 20
0.0
 30
0.0
  0
VERTEX
  5
26B
330
26A
100
AcDbEntity
  8
\U+5716\U+5C64 1
370
     0
100
AcDbVertex
100
AcDb2dVertex
 10
40.14021201711482
 20
257.2004910612579
 30
0.0
  0
VERTEX
  5
26C
330
26A
100
AcDbEntity
  8
\U+5716\U+5C64 1
370
     0
100
AcDbVertex
100
AcDb2dVertex
 10
39.26291787304987
 20
256.3231969171929
 30
0.0
  0
VERTEX
  5
26D
330
26A
100
AcDbEntity
  8
\U+5716\U+5C64 1
370
     0
100
AcDbVertex
100
AcDb2dVertex
 10
37.06959638544357
 20
259.3938125488642
 30
0.0
  0
VERTEX
  5
26E
330
26A
100
AcDbEntity
  8
\U+5716\U+5C64 1
370
     0
100
AcDbVertex
100
AcDb2dVertex
 10
40.14021201711482
 20
257.2004910612579
 30
0.0
  0
SEQEND
  5
26F
330
26A
100
AcDbEntity
  8
\U+5716\U+5C64 1
370
     0
  0
HATCH
  5
270
330
266
100
AcDbEntity
  8
\U+5716\U+5C64 1
 62
     2
100
AcDbHatch
 10
0.0
 20
0.0
 30
0.0
210
0.0
220
0.0
230
1.0
  2
SOLID
 70
     1
 71
     0
 91
        1
 92
        1
 93
        3
 72
     1
 10
40.14021201711482
 20
257.2004910612579
 11
39.26291787304987
 21
256.3231969171929
 72
     1
 10
39.26291787304987
 20
256.3231969171929
 11
37.06959638544357
 21
259.3938125488642
 72
     1
 10
37.06959638544357
 20
259.3938125488642
 11
40.14021201711482
 21
257.2004910612579
 97
        0
 75
     2
 76
     1
 98
        0
  0
ENDBLK
  5
269
330
266
100
AcDbEntity
  8
0
100
AcDbBlockEnd
  0
BLOCK
  5
273
330
271
100
AcDbEntity
  8
0
100
AcDbBlockBegin
  2
block 81
 70
     0
 71
     0
 10
0.0
 20
0.0
 30
0.0
  3
block 81
  1

  0
MTEXT
  5
275
330
271
100
AcDbEntity
  8
\U+5716\U+5C64 1
 62
     2
100
AcDbMText
 10
62.78570085463649
 20
236.8704524268623
 30
0.0
 40
4.838984876044339
 41
0.0
 71
     7
 72
     1
  1
\fTxt|b0|i0|c0|p34;\W1;11.11
 11
0.7071066786324686
 21
-0.7071068837406116
 31
0.0
 73
     1
 44
1.0
  0
ENDBLK
  5
274
330
271
100
AcDbEntity
  8
0
100
AcDbBlockEnd
  0
BLOCK
  5
278
330
276
100
AcDbEntity
  8
0
100
AcDbBlockBegin
  2
block 82
 70
     0
 71
     0
 10
0.0
 20
0.0
 30
0.0
  3
block 82
  1

  0
POLYLINE
  5
27A
330
276
100
AcDbEntity
  8
\U+5716\U+5C64 1
370
     0
100
AcDb2dPolyline
 66
     1
 10
0.0
 20
0.0
 30
0.0
  0
VERTEX
  5
27B
330
27A
100
AcDbEntity
  8
\U+5716\U+5C64 1
370
     0
100
AcDbVertex
100
AcDb2dVertex
 10
120.7107132825648
 20
226.0662813481186
 30
0.0
  0
VERTEX
  5
27C
330
27A
100
AcDbEntity
  8
\U+5716\U+5C64 1
370
     0
100
AcDbVertex
100
AcDb2dVertex
 10
120.7107132825648
 20
226.0662813481186
 30
0.0
  0
SEQEND
  5
27D
330
27A
100
AcDbEntity
  8
\U+5716\U+5C64 1
370
     0
  0
ENDBLK
  5
279
330
276
100
AcDbEntity
  8
0
100
AcDbBlockEnd
  0
BLOCK
  5
280
330
27E
100
AcDbEntity
  8
0
100
AcDbBlockBegin
  2
block 83
 70
     0
 71
     0
 10
0.0
 20
0.0
 30
0.0
  3
block 83
  1

  0
POLYLINE
  5
282
330
27E
100
AcDbEntity
  8
\U+5716\U+5C64 1
370
     0
100
AcDb2dPolyline
 66
     1
 10
0.0
 20
0.0
 30
0.0
  0
VERTEX
  5
283
330
282
100
AcDbEntity
  8
\U+5716\U+5C64 1
370
     0
100
AcDbVertex
100
AcDb2dVertex
 10
62.22621697874351
 20
284.550605397052
 30
0.0
  0
VERTEX
  5
284
330
282
100
AcDbEntity
  8
\U+5716\U+5C64 1
370
     0
100
AcDbVertex
100
AcDb2dVertex
 10
62.22621697874351
 20
284.550605397052
 30
0.0
  0
SEQEND
  5
285
330
282
100
AcDbEntity
  8
\U+5716\U+5C64 1
370
     0
  0
ENDBLK
  5
281
330
27E
100
AcDbEntity
  8
0
100
AcDbBlockEnd
  0
BLOCK
  5
288
330
286
100
AcDbEntity
  8
0
100
AcDbBlockBegin
  2
block 84
 70
     0
 71
     0
 10
0.0
 20
0.0
 30
0.0
  3
block 84
  1

  0
POLYLINE
  5
28A
330
286
100
AcDbEntity
  8
\U+5716\U+5C64 1
370
     0
100
AcDb2dPolyline
 66
     1
 10
0.0
 20
0.0
 30
0.0
  0
VERTEX
  5
28B
330
28A
100
AcDbEntity
  8
\U+5716\U+5C64 1
370
     0
100
AcDbVertex
100
AcDb2dVertex
 10
37.06959638544357
 20
259.3938125488642
 30
0.0
  0
VERTEX
  5
28C
330
28A
100
AcDbEntity
  8
\U+5716\U+5C64 1
370
     0
100
AcDbVertex
100
AcDb2dVertex
 10
37.06959638544357
 20
259.3938125488642
 30
0.0
  0
SEQEND
  5
28D
330
28A
100
AcDbEntity
  8
\U+5716\U+5C64 1
370
     0
  0
ENDBLK
  5
289
330
286
100
AcDbEntity
  8
0
100
AcDbBlockEnd
  0
BLOCK
  5
290
330
28E
100
AcDbEntity
  8
0
100
AcDbBlockBegin
  2
block 85
 70
     0
 71
     0
 10
0.0
 20
0.0
 30
0.0
  3
block 85
  1

  0
POLYLINE
  5
292
330
28E
100
AcDbEntity
  8
\U+5716\U+5C64 1
 62
     7
370
    25
100
AcDb2dPolyline
 66
     1
 10
0.0
 20
0.0
 30
0.0
  0
VERTEX
  5
293
330
292
100
AcDbEntity
  8
\U+5716\U+5C64 1
 62
     7
370
    25
100
AcDbVertex
100
AcDb2dVertex
 10
177.1421035775289
 20
161.2123160544898
 30
0.0
  0
VERTEX
  5
294
330
292
100
AcDbEntity
  8
\U+5716\U+5C64 1
 62
     7
370
    25
100
AcDbVertex
100
AcDb2dVertex
 10
235.6264276264623
 20
219.6966401034232
 30
0.0
  0
SEQEND
  5
295
330
292
100
AcDbEntity
  8
\U+5716\U+5C64 1
370
    25
  0
ENDBLK
  5
291
330
28E
100
AcDbEntity
  8
0
100
AcDbBlockEnd
  0
BLOCK
  5
298
330
296
100
AcDbEntity
  8
0
100
AcDbBlockBegin
  2
block 86
 70
     0
 71
     0
 10
0.0
 20
0.0
 30
0.0
  3
block 86
  1

  0
POLYLINE
  5
29A
330
296
100
AcDbEntity
  8
\U+5716\U+5C64 1
 62
     7
370
    25
100
AcDb2dPolyline
 66
     1
 10
0.0
 20
0.0
 30
0.0
  0
VERTEX
  5
29B
330
29A
100
AcDbEntity
  8
\U+5716\U+5C64 1
 62
     7
370
    25
100
AcDbVertex
100
AcDb2dVertex
 10
250.9636583351319
 20
193.1314912917807
 30
0.0
  0
VERTEX
  5
29C
330
29A
100
AcDbEntity
  8
\U+5716\U+5C64 1
 62
     7
370
    25
100
AcDbVertex
100
AcDb2dVertex
 10
203.7072523891715
 20
145.8747408360444
 30
0.0
  0
SEQEND
  5
29D
330
29A
100
AcDbEntity
  8
\U+5716\U+5C64 1
370
    25
  0
ENDBLK
  5
299
330
296
100
AcDbEntity
  8
0
100
AcDbBlockEnd
  0
BLOCK
  5
2A0
330
29E
100
AcDbEntity
  8
0
100
AcDbBlockBegin
  2
block 87
 70
     0
 71
     0
 10
0.0
 20
0.0
 30
0.0
  3
block 87
  1

  0
SPLINE
  5
2A2
330
29E
100
AcDbEntity
  8
\U+5716\U+5C64 1
  6
AI-Linetype-18
 62
     3
370
    25
100
AcDbSpline
210
0.0
220
0.0
230
1.0
 70
     8
 71
     3
 72
     8
 73
     4
 74
     0
 42
0.0000000001
 43
0.0000000001
 40
0.0
 40
0.0
 40
0.0
 40
0.0
 40
1.0
 40
1.0
 40
1.0
 40
1.0
 10
225.756222549902
 20
202.6671773760428
 30
0.0
 10
224.9679841828804
 20
198.7928204374391
 30
0.0
 10
226.6281767924422
 20
193.3381971572584
 30
0.0
 10
229.4410991118179
 20
190.5597258154623
 30
0.0
  0
ENDBLK
  5
2A1
330
29E
100
AcDbEntity
  8
0
100
AcDbBlockEnd
  0
BLOCK
  5
2A6
330
2A4
100
AcDbEntity
  8
0
100
AcDbBlockBegin
  2
block 88
 70
     0
 71
     0
 10
0.0
 20
0.0
 30
0.0
  3
block 88
  1

  0
POLYLINE
  5
2A8
330
2A4
100
AcDbEntity
  8
\U+5716\U+5C64 1
  6
AI-Linetype-19
 62
     3
370
    25
100
AcDb2dPolyline
 66
     1
 10
0.0
 20
0.0
 30
0.0
  0
VERTEX
  5
2A9
330
2A8
100
AcDbEntity
  8
\U+5716\U+5C64 1
  6
AI-Linetype-19
 62
     3
370
    25
100
AcDbVertex
100
AcDb2dVertex
 10
225.756222549902
 20
202.6671773760428
 30
0.0
  0
VERTEX
  5
2AA
330
2A8
100
AcDbEntity
  8
\U+5716\U+5C64 1
  6
AI-Linetype-19
 62
     3
370
    25
100
AcDbVertex
100
AcDb2dVertex
 10
194.1715663049093
 20
171.0825211310501
 30
0.0
  0
SEQEND
  5
2AB
330
2A8
100
AcDbEntity
  8
\U+5716\U+5C64 1
  6
AI-Linetype-19
370
    25
  0
ENDBLK
  5
2A7
330
2A4
100
AcDbEntity
  8
0
100
AcDbBlockEnd
  0
BLOCK
  5
2AF
330
2AD
100
AcDbEntity
  8
0
100
AcDbBlockBegin
  2
block 89
 70
     0
 71
     0
 10
0.0
 20
0.0
 30
0.0
  3
block 89
  1

  0
POLYLINE
  5
2B1
330
2AD
100
AcDbEntity
  8
\U+5716\U+5C64 1
  6
AI-Linetype-20
 62
     3
370
    25
100
AcDb2dPolyline
 66
     1
 10
0.0
 20
0.0
 30
0.0
  0
VERTEX
  5
2B2
330
2B1
100
AcDbEntity
  8
\U+5716\U+5C64 1
  6
AI-Linetype-20
 62
     3
370
    25
100
AcDbVertex
100
AcDb2dVertex
 10
229.4410991118179
 20
190.5597258154623
 30
0.0
  0
VERTEX
  5
2B3
330
2B1
100
AcDbEntity
  8
\U+5716\U+5C64 1
  6
AI-Linetype-20
 62
     3
370
    25
100
AcDbVertex
100
AcDb2dVertex
 10
238.9164959853157
 20
181.0843289419644
 30
0.0
  0
SEQEND
  5
2B4
330
2B1
100
AcDbEntity
  8
\U+5716\U+5C64 1
  6
AI-Linetype-20
370
    25
  0
ENDBLK
  5
2B0
330
2AD
100
AcDbEntity
  8
0
100
AcDbBlockEnd
  0
BLOCK
  5
2B8
330
2B6
100
AcDbEntity
  8
0
100
AcDbBlockBegin
  2
block 90
 70
     0
 71
     0
 10
0.0
 20
0.0
 30
0.0
  3
block 90
  1

  0
POLYLINE
  5
2BA
330
2B6
100
AcDbEntity
  8
\U+5716\U+5C64 1
  6
AI-Linetype-21
 62
     3
370
    25
100
AcDb2dPolyline
 66
     1
 10
0.0
 20
0.0
 30
0.0
  0
VERTEX
  5
2BB
330
2BA
100
AcDbEntity
  8
\U+5716\U+5C64 1
  6
AI-Linetype-21
 62
     3
370
    25
100
AcDbVertex
100
AcDb2dVertex
 10
206.2790178654899
 20
167.3976445691342
 30
0.0
  0
VERTEX
  5
2BC
330
2BA
100
AcDbEntity
  8
\U+5716\U+5C64 1
  6
AI-Linetype-21
 62
     3
370
    25
100
AcDbVertex
100
AcDb2dVertex
 10
215.7544147389877
 20
157.9222476956364
 30
0.0
  0
SEQEND
  5
2BD
330
2BA
100
AcDbEntity
  8
\U+5716\U+5C64 1
  6
AI-Linetype-21
370
    25
  0
ENDBLK
  5
2B9
330
2B6
100
AcDbEntity
  8
0
100
AcDbBlockEnd
  0
BLOCK
  5
2C1
330
2BF
100
AcDbEntity
  8
0
100
AcDbBlockBegin
  2
block 91
 70
     0
 71
     0
 10
0.0
 20
0.0
 30
0.0
  3
block 91
  1

  0
POLYLINE
  5
2C3
330
2BF
100
AcDbEntity
  8
\U+5716\U+5C64 1
  6
AI-Linetype-22
 62
     4
370
    25
100
AcDb2dPolyline
 66
     1
 10
0.0
 20
0.0
 30
0.0
  0
VERTEX
  5
2C4
330
2C3
100
AcDbEntity
  8
\U+5716\U+5C64 1
  6
AI-Linetype-22
 62
     4
370
    25
100
AcDbVertex
100
AcDb2dVertex
 10
195.8558745987768
 20
200.9825245723996
 30
0.0
  0
VERTEX
  5
2C5
330
2C3
100
AcDbEntity
  8
\U+5716\U+5C64 1
  6
AI-Linetype-22
 62
     4
370
    25
100
AcDbVertex
100
AcDb2dVertex
 10
237.8636741104826
 20
158.9750695704695
 30
0.0
  0
SEQEND
  5
2C6
330
2C3
100
AcDbEntity
  8
\U+5716\U+5C64 1
  6
AI-Linetype-22
370
    25
  0
ENDBLK
  5
2C2
330
2BF
100
AcDbEntity
  8
0
100
AcDbBlockEnd
  0
BLOCK
  5
2CA
330
2C8
100
AcDbEntity
  8
0
100
AcDbBlockBegin
  2
block 92
 70
     0
 71
     0
 10
0.0
 20
0.0
 30
0.0
  3
block 92
  1

  0
POLYLINE
  5
2CC
330
2C8
100
AcDbEntity
  8
\U+5716\U+5C64 1
  6
AI-Linetype-23
 62
     3
370
    25
100
AcDb2dPolyline
 66
     1
 10
0.0
 20
0.0
 30
0.0
  0
VERTEX
  5
2CD
330
2CC
100
AcDbEntity
  8
\U+5716\U+5C64 1
  6
AI-Linetype-23
 62
     3
370
    25
100
AcDbVertex
100
AcDb2dVertex
 10
229.4410991118179
 20
190.5597258154623
 30
0.0
  0
VERTEX
  5
2CE
330
2CC
100
AcDbEntity
  8
\U+5716\U+5C64 1
  6
AI-Linetype-23
 62
     3
370
    25
100
AcDbVertex
100
AcDb2dVertex
 10
206.2790178654899
 20
167.3976445691342
 30
0.0
  0
SEQEND
  5
2CF
330
2CC
100
AcDbEntity
  8
\U+5716\U+5C64 1
  6
AI-Linetype-23
370
    25
  0
ENDBLK
  5
2CB
330
2C8
100
AcDbEntity
  8
0
100
AcDbBlockEnd
  0
BLOCK
  5
2D3
330
2D1
100
AcDbEntity
  8
0
100
AcDbBlockBegin
  2
block 93
 70
     0
 71
     0
 10
0.0
 20
0.0
 30
0.0
  3
block 93
  1

  0
SPLINE
  5
2D5
330
2D1
100
AcDbEntity
  8
\U+5716\U+5C64 1
  6
AI-Linetype-24
 62
     3
370
    25
100
AcDbSpline
210
0.0
220
0.0
230
1.0
 70
     8
 71
     3
 72
     8
 73
     4
 74
     0
 42
0.0000000001
 43
0.0000000001
 40
0.0
 40
0.0
 40
0.0
 40
0.0
 40
1.0
 40
1.0
 40
1.0
 40
1.0
 10
206.2790178654899
 20
167.3976445691342
 30
0.0
 10
203.5005465236937
 20
170.21056688851
 30
0.0
 10
198.045923243513
 20
171.8707594980717
 30
0.0
 10
194.1715663049093
 20
171.0825211310501
 30
0.0
  0
ENDBLK
  5
2D4
330
2D1
100
AcDbEntity
  8
0
100
AcDbBlockEnd
  0
BLOCK
  5
2D9
330
2D7
100
AcDbEntity
  8
0
100
AcDbBlockBegin
  2
block 94
 70
     0
 71
     0
 10
0.0
 20
0.0
 30
0.0
  3
block 94
  1

  0
POLYLINE
  5
2DB
330
2D7
100
AcDbEntity
  8
\U+5716\U+5C64 1
  6
AI-Linetype-25
 62
     3
370
    25
100
AcDb2dPolyline
 66
     1
 10
0.0
 20
0.0
 30
0.0
  0
VERTEX
  5
2DC
330
2DB
100
AcDbEntity
  8
\U+5716\U+5C64 1
  6
AI-Linetype-25
 62
     3
370
    25
100
AcDbVertex
100
AcDb2dVertex
 10
190.5917652246113
 20
174.6619777015723
 30
0.0
  0
VERTEX
  5
2DD
330
2DB
100
AcDbEntity
  8
\U+5716\U+5C64 1
  6
AI-Linetype-25
 62
     3
370
    25
100
AcDbVertex
100
AcDb2dVertex
 10
194.1715663049093
 20
171.0825211310501
 30
0.0
  0
SEQEND
  5
2DE
330
2DB
100
AcDbEntity
  8
\U+5716\U+5C64 1
  6
AI-Linetype-25
370
    25
  0
ENDBLK
  5
2DA
330
2D7
100
AcDbEntity
  8
0
100
AcDbBlockEnd
  0
BLOCK
  5
2E2
330
2E0
100
AcDbEntity
  8
0
100
AcDbBlockBegin
  2
block 95
 70
     0
 71
     0
 10
0.0
 20
0.0
 30
0.0
  3
block 95
  1

  0
POLYLINE
  5
2E4
330
2E0
100
AcDbEntity
  8
\U+5716\U+5C64 1
  6
AI-Linetype-26
 62
     3
370
    25
100
AcDb2dPolyline
 66
     1
 10
0.0
 20
0.0
 30
0.0
  0
VERTEX
  5
2E5
330
2E4
100
AcDbEntity
  8
\U+5716\U+5C64 1
  6
AI-Linetype-26
 62
     3
370
    25
100
AcDbVertex
100
AcDb2dVertex
 10
222.1767659793799
 20
206.2469784563408
 30
0.0
  0
VERTEX
  5
2E6
330
2E4
100
AcDbEntity
  8
\U+5716\U+5C64 1
  6
AI-Linetype-26
 62
     3
370
    25
100
AcDbVertex
100
AcDb2dVertex
 10
225.756222549902
 20
202.6671773760428
 30
0.0
  0
SEQEND
  5
2E7
330
2E4
100
AcDbEntity
  8
\U+5716\U+5C64 1
  6
AI-Linetype-26
370
    25
  0
ENDBLK
  5
2E3
330
2E0
100
AcDbEntity
  8
0
100
AcDbBlockEnd
  0
BLOCK
  5
2EB
330
2E9
100
AcDbEntity
  8
0
100
AcDbBlockBegin
  2
block 96
 70
     0
 71
     0
 10
0.0
 20
0.0
 30
0.0
  3
block 96
  1

  0
POLYLINE
  5
2ED
330
2E9
100
AcDbEntity
  8
\U+5716\U+5C64 1
 62
     7
370
    25
100
AcDb2dPolyline
 66
     1
 10
0.0
 20
0.0
 30
0.0
  0
VERTEX
  5
2EE
330
2ED
100
AcDbEntity
  8
\U+5716\U+5C64 1
 62
     7
370
    25
100
AcDbVertex
100
AcDb2dVertex
 10
235.6264276264623
 20
219.6966401034232
 30
0.0
  0
VERTEX
  5
2EF
330
2ED
100
AcDbEntity
  8
\U+5716\U+5C64 1
 62
     7
370
    25
100
AcDbVertex
100
AcDb2dVertex
 10
250.9636583351319
 20
193.1314912917807
 30
0.0
  0
SEQEND
  5
2F0
330
2ED
100
AcDbEntity
  8
\U+5716\U+5C64 1
370
    25
  0
ENDBLK
  5
2EC
330
2E9
100
AcDbEntity
  8
0
100
AcDbBlockEnd
  0
BLOCK
  5
2F3
330
2F1
100
AcDbEntity
  8
0
100
AcDbBlockBegin
  2
block 97
 70
     0
 71
     0
 10
0.0
 20
0.0
 30
0.0
  3
block 97
  1

  0
POLYLINE
  5
2F5
330
2F1
100
AcDbEntity
  8
\U+5716\U+5C64 1
 62
     7
370
    25
100
AcDb2dPolyline
 66
     1
 10
0.0
 20
0.0
 30
0.0
  0
VERTEX
  5
2F6
330
2F5
100
AcDbEntity
  8
\U+5716\U+5C64 1
 62
     7
370
    25
100
AcDbVertex
100
AcDb2dVertex
 10
177.1421035775289
 20
161.2123160544898
 30
0.0
  0
VERTEX
  5
2F7
330
2F5
100
AcDbEntity
  8
\U+5716\U+5C64 1
 62
     7
370
    25
100
AcDbVertex
100
AcDb2dVertex
 10
203.7072523891715
 20
145.8747408360444
 30
0.0
  0
SEQEND
  5
2F8
330
2F5
100
AcDbEntity
  8
\U+5716\U+5C64 1
370
    25
  0
ENDBLK
  5
2F4
330
2F1
100
AcDbEntity
  8
0
100
AcDbBlockEnd
  0
BLOCK
  5
2FB
330
2F9
100
AcDbEntity
  8
0
100
AcDbBlockBegin
  2
block 98
 70
     0
 71
     0
 10
0.0
 20
0.0
 30
0.0
  3
block 98
  1

  0
INSERT
  5
2FE
330
2F9
100
AcDbEntity
  8
\U+5716\U+5C64 1
100
AcDbBlockReference
  2
block 99
 10
0.0
 20
0.0
 30
0.0
  0
ENDBLK
  5
2FC
330
2F9
100
AcDbEntity
  8
0
100
AcDbBlockEnd
  0
BLOCK
  5
2FF
330
2FD
100
AcDbEntity
  8
0
100
AcDbBlockBegin
  2
block 99
 70
     0
 71
     0
 10
0.0
 20
0.0
 30
0.0
  3
block 99
  1

  0
INSERT
  5
302
330
2FD
100
AcDbEntity
  8
\U+5716\U+5C64 1
100
AcDbBlockReference
  2
block 100
 10
0.0
 20
0.0
 30
0.0
  0
INSERT
  5
30A
330
2FD
100
AcDbEntity
  8
\U+5716\U+5C64 1
100
AcDbBlockReference
  2
block 101
 10
0.0
 20
0.0
 30
0.0
  0
INSERT
  5
312
330
2FD
100
AcDbEntity
  8
\U+5716\U+5C64 1
100
AcDbBlockReference
  2
block 102
 10
0.0
 20
0.0
 30
0.0
  0
INSERT
  5
317
330
2FD
100
AcDbEntity
  8
\U+5716\U+5C64 1
100
AcDbBlockReference
  2
block 103
 10
0.0
 20
0.0
 30
0.0
  0
INSERT
  5
322
330
2FD
100
AcDbEntity
  8
\U+5716\U+5C64 1
100
AcDbBlockReference
  2
block 104
 10
0.0
 20
0.0
 30
0.0
  0
INSERT
  5
32D
330
2FD
100
AcDbEntity
  8
\U+5716\U+5C64 1
100
AcDbBlockReference
  2
block 105
 10
0.0
 20
0.0
 30
0.0
  0
INSERT
  5
332
330
2FD
100
AcDbEntity
  8
\U+5716\U+5C64 1
100
AcDbBlockReference
  2
block 106
 10
0.0
 20
0.0
 30
0.0
  0
INSERT
  5
33A
330
2FD
100
AcDbEntity
  8
\U+5716\U+5C64 1
100
AcDbBlockReference
  2
block 107
 10
0.0
 20
0.0
 30
0.0
  0
INSERT
  5
342
330
2FD
100
AcDbEntity
  8
\U+5716\U+5C64 1
100
AcDbBlockReference
  2
block 108
 10
0.0
 20
0.0
 30
0.0
  0
INSERT
  5
34A
330
2FD
100
AcDbEntity
  8
\U+5716\U+5C64 1
100
AcDbBlockReference
  2
block 109
 10
0.0
 20
0.0
 30
0.0
  0
INSERT
  5
352
330
2FD
100
AcDbEntity
  8
\U+5716\U+5C64 1
100
AcDbBlockReference
  2
block 110
 10
0.0
 20
0.0
 30
0.0
  0
ENDBLK
  5
300
330
2FD
100
AcDbEntity
  8
0
100
AcDbBlockEnd
  0
BLOCK
  5
303
330
301
100
AcDbEntity
  8
0
100
AcDbBlockBegin
  2
block 100
 70
     0
 71
     0
 10
0.0
 20
0.0
 30
0.0
  3
block 100
  1

  0
POLYLINE
  5
305
330
301
100
AcDbEntity
  8
\U+5716\U+5C64 1
 62
     2
370
    25
100
AcDb2dPolyline
 66
     1
 10
0.0
 20
0.0
 30
0.0
  0
VERTEX
  5
306
330
305
100
AcDbEntity
  8
\U+5716\U+5C64 1
 62
     2
370
    25
100
AcDbVertex
100
AcDb2dVertex
 10
234.5098714431069
 20
221.6307179847429
 30
0.0
  0
VERTEX
  5
307
330
305
100
AcDbEntity
  8
\U+5716\U+5C64 1
 62
     2
370
    25
100
AcDbVertex
100
AcDb2dVertex
 10
227.1635449840294
 20
234.3546697891107
 30
0.0
  0
SEQEND
  5
308
330
305
100
AcDbEntity
  8
\U+5716\U+5C64 1
370
    25
  0
ENDBLK
  5
304
330
301
100
AcDbEntity
  8
0
100
AcDbBlockEnd
  0
BLOCK
  5
30B
330
309
100
AcDbEntity
  8
0
100
AcDbBlockBegin
  2
block 101
 70
     0
 71
     0
 10
0.0
 20
0.0
 30
0.0
  3
block 101
  1

  0
POLYLINE
  5
30D
330
309
100
AcDbEntity
  8
\U+5716\U+5C64 1
 62
     2
370
    25
100
AcDb2dPolyline
 66
     1
 10
0.0
 20
0.0
 30
0.0
  0
VERTEX
  5
30E
330
30D
100
AcDbEntity
  8
\U+5716\U+5C64 1
 62
     2
370
    25
100
AcDbVertex
100
AcDb2dVertex
 10
194.2766417865271
 20
202.5617573846492
 30
0.0
  0
VERTEX
  5
30F
330
30D
100
AcDbEntity
  8
\U+5716\U+5C64 1
 62
     2
370
    25
100
AcDbVertex
100
AcDb2dVertex
 10
190.5662715012024
 20
206.2724721797497
 30
0.0
  0
SEQEND
  5
310
330
30D
100
AcDbEntity
  8
\U+5716\U+5C64 1
370
    25
  0
ENDBLK
  5
30C
330
309
100
AcDbEntity
  8
0
100
AcDbBlockEnd
  0
BLOCK
  5
313
330
311
100
AcDbEntity
  8
0
100
AcDbBlockBegin
  2
block 102
 70
     0
 71
     0
 10
0.0
 20
0.0
 30
0.0
  3
block 102
  1

  0
SPLINE
  5
315
330
311
100
AcDbEntity
  8
\U+5716\U+5C64 1
 62
     2
370
    25
100
AcDbSpline
210
0.0
220
0.0
230
1.0
 70
     8
 71
     3
 72
     8
 73
     4
 74
     0
 42
0.0000000001
 43
0.0000000001
 40
0.0
 40
0.0
 40
0.0
 40
0.0
 40
1.0
 40
1.0
 40
1.0
 40
1.0
 10
225.076849272032
 20
230.5250991213605
 30
0.0
 10
216.4058827250182
 20
225.6299597170728
 30
0.0
 10
201.7779976447129
 20
214.4056589667457
 30
0.0
 10
194.8054642923742
 20
207.2970442529675
 30
0.0
  0
ENDBLK
  5
314
330
311
100
AcDbEntity
  8
0
100
AcDbBlockEnd
  0
BLOCK
  5
318
330
316
100
AcDbEntity
  8
0
100
AcDbBlockBegin
  2
block 103
 70
     0
 71
     0
 10
0.0
 20
0.0
 30
0.0
  3
block 103
  1

  0
POLYLINE
  5
31A
330
316
100
AcDbEntity
  8
\U+5716\U+5C64 1
370
     0
100
AcDb2dPolyline
 66
     1
 10
0.0
 20
0.0
 30
0.0
  0
VERTEX
  5
31B
330
31A
100
AcDbEntity
  8
\U+5716\U+5C64 1
370
     0
100
AcDbVertex
100
AcDb2dVertex
 10
224.7609338076269
 20
231.0590892738446
 30
0.0
  0
VERTEX
  5
31C
330
31A
100
AcDbEntity
  8
\U+5716\U+5C64 1
370
     0
100
AcDbVertex
100
AcDb2dVertex
 10
225.3927647364371
 20
229.9912812237644
 30
0.0
  0
VERTEX
  5
31D
330
31A
100
AcDbEntity
  8
\U+5716\U+5C64 1
370
     0
100
AcDbVertex
100
AcDb2dVertex
 10
228.2804456771606
 20
232.420591907791
 30
0.0
  0
VERTEX
  5
31E
330
31A
100
AcDbEntity
  8
\U+5716\U+5C64 1
370
     0
100
AcDbVertex
100
AcDb2dVertex
 10
224.7609338076269
 20
231.0590892738446
 30
0.0
  0
SEQEND
  5
31F
330
31A
100
AcDbEntity
  8
\U+5716\U+5C64 1
370
     0
  0
HATCH
  5
320
330
316
100
AcDbEntity
  8
\U+5716\U+5C64 1
 62
     2
100
AcDbHatch
 10
0.0
 20
0.0
 30
0.0
210
0.0
220
0.0
230
1.0
  2
SOLID
 70
     1
 71
     0
 91
        1
 92
        1
 93
        3
 72
     1
 10
224.7609338076269
 20
231.0590892738446
 11
225.3927647364371
 21
229.9912812237644
 72
     1
 10
225.3927647364371
 20
229.9912812237644
 11
228.2804456771606
 21
232.420591907791
 72
     1
 10
228.2804456771606
 20
232.420591907791
 11
224.7609338076269
 21
231.0590892738446
 97
        0
 75
     2
 76
     1
 98
        0
  0
ENDBLK
  5
319
330
316
100
AcDbEntity
  8
0
100
AcDbBlockEnd
  0
BLOCK
  5
323
330
321
100
AcDbEntity
  8
0
100
AcDbBlockBegin
  2
block 104
 70
     0
 71
     0
 10
0.0
 20
0.0
 30
0.0
  3
block 104
  1

  0
POLYLINE
  5
325
330
321
100
AcDbEntity
  8
\U+5716\U+5C64 1
370
     0
100
AcDb2dPolyline
 66
     1
 10
0.0
 20
0.0
 30
0.0
  0
VERTEX
  5
326
330
325
100
AcDbEntity
  8
\U+5716\U+5C64 1
370
     0
100
AcDbVertex
100
AcDb2dVertex
 10
195.2392021001016
 20
206.8536601715179
 30
0.0
  0
VERTEX
  5
327
330
325
100
AcDbEntity
  8
\U+5716\U+5C64 1
370
     0
100
AcDbVertex
100
AcDb2dVertex
 10
194.3713819748711
 20
207.7404283344172
 30
0.0
  0
VERTEX
  5
328
330
325
100
AcDbEntity
  8
\U+5716\U+5C64 1
370
     0
100
AcDbVertex
100
AcDb2dVertex
 10
192.145504313452
 20
204.6932393675001
 30
0.0
  0
VERTEX
  5
329
330
325
100
AcDbEntity
  8
\U+5716\U+5C64 1
370
     0
100
AcDbVertex
100
AcDb2dVertex
 10
195.2392021001016
 20
206.8536601715179
 30
0.0
  0
SEQEND
  5
32A
330
325
100
AcDbEntity
  8
\U+5716\U+5C64 1
370
     0
  0
HATCH
  5
32B
330
321
100
AcDbEntity
  8
\U+5716\U+5C64 1
 62
     2
100
AcDbHatch
 10
0.0
 20
0.0
 30
0.0
210
0.0
220
0.0
230
1.0
  2
SOLID
 70
     1
 71
     0
 91
        1
 92
        1
 93
        3
 72
     1
 10
195.2392021001016
 20
206.8536601715179
 11
194.3713819748711
 21
207.7404283344172
 72
     1
 10
194.3713819748711
 20
207.7404283344172
 11
192.145504313452
 21
204.6932393675001
 72
     1
 10
192.145504313452
 20
204.6932393675001
 11
195.2392021001016
 21
206.8536601715179
 97
        0
 75
     2
 76
     1
 98
        0
  0
ENDBLK
  5
324
330
321
100
AcDbEntity
  8
0
100
AcDbBlockEnd
  0
BLOCK
  5
32E
330
32C
100
AcDbEntity
  8
0
100
AcDbBlockBegin
  2
block 105
 70
     0
 71
     0
 10
0.0
 20
0.0
 30
0.0
  3
block 105
  1

  0
MTEXT
  5
330
330
32C
100
AcDbEntity
  8
\U+5716\U+5C64 1
 62
     2
100
AcDbMText
 10
203.4364677053957
 20
218.0841620978093
 30
0.0
 40
4.838984876044339
 41
0.0
 71
     7
 72
     1
  1
\fTxt|b0|i0|c0|p34;\W1;15\U+00B0
 11
0.7933534199163301
 21
0.6087613252392625
 31
0.0
 73
     1
 44
1.0
  0
ENDBLK
  5
32F
330
32C
100
AcDbEntity
  8
0
100
AcDbBlockEnd
  0
BLOCK
  5
333
330
331
100
AcDbEntity
  8
0
100
AcDbBlockBegin
  2
block 106
 70
     0
 71
     0
 10
0.0
 20
0.0
 30
0.0
  3
block 106
  1

  0
POLYLINE
  5
335
330
331
100
AcDbEntity
  8
\U+5716\U+5C64 1
370
     0
100
AcDb2dPolyline
 66
     1
 10
0.0
 20
0.0
 30
0.0
  0
VERTEX
  5
336
330
335
100
AcDbEntity
  8
\U+5716\U+5C64 1
370
     0
100
AcDbVertex
100
AcDb2dVertex
 10
215.4429779016679
 20
224.2422743401658
 30
0.0
  0
VERTEX
  5
337
330
335
100
AcDbEntity
  8
\U+5716\U+5C64 1
370
     0
100
AcDbVertex
100
AcDb2dVertex
 10
215.4429779016679
 20
224.2422743401658
 30
0.0
  0
SEQEND
  5
338
330
335
100
AcDbEntity
  8
\U+5716\U+5C64 1
370
     0
  0
ENDBLK
  5
334
330
331
100
AcDbEntity
  8
0
100
AcDbBlockEnd
  0
BLOCK
  5
33B
330
339
100
AcDbEntity
  8
0
100
AcDbBlockBegin
  2
block 107
 70
     0
 71
     0
 10
0.0
 20
0.0
 30
0.0
  3
block 107
  1

  0
POLYLINE
  5
33D
330
339
100
AcDbEntity
  8
\U+5716\U+5C64 1
370
     0
100
AcDb2dPolyline
 66
     1
 10
0.0
 20
0.0
 30
0.0
  0
VERTEX
  5
33E
330
33D
100
AcDbEntity
  8
\U+5716\U+5C64 1
370
     0
100
AcDbVertex
100
AcDb2dVertex
 10
235.6264276264623
 20
219.6966401034232
 30
0.0
  0
VERTEX
  5
33F
330
33D
100
AcDbEntity
  8
\U+5716\U+5C64 1
370
     0
100
AcDbVertex
100
AcDb2dVertex
 10
235.6264276264623
 20
219.6966401034232
 30
0.0
  0
SEQEND
  5
340
330
33D
100
AcDbEntity
  8
\U+5716\U+5C64 1
370
     0
  0
ENDBLK
  5
33C
330
339
100
AcDbEntity
  8
0
100
AcDbBlockEnd
  0
BLOCK
  5
343
330
341
100
AcDbEntity
  8
0
100
AcDbBlockBegin
  2
block 108
 70
     0
 71
     0
 10
0.0
 20
0.0
 30
0.0
  3
block 108
  1

  0
POLYLINE
  5
345
330
341
100
AcDbEntity
  8
\U+5716\U+5C64 1
370
     0
100
AcDb2dPolyline
 66
     1
 10
0.0
 20
0.0
 30
0.0
  0
VERTEX
  5
346
330
345
100
AcDbEntity
  8
\U+5716\U+5C64 1
370
     0
100
AcDbVertex
100
AcDb2dVertex
 10
195.8558745987768
 20
200.9825245723996
 30
0.0
  0
VERTEX
  5
347
330
345
100
AcDbEntity
  8
\U+5716\U+5C64 1
370
     0
100
AcDbVertex
100
AcDb2dVertex
 10
195.8558745987768
 20
200.9825245723996
 30
0.0
  0
SEQEND
  5
348
330
345
100
AcDbEntity
  8
\U+5716\U+5C64 1
370
     0
  0
ENDBLK
  5
344
330
341
100
AcDbEntity
  8
0
100
AcDbBlockEnd
  0
BLOCK
  5
34B
330
349
100
AcDbEntity
  8
0
100
AcDbBlockBegin
  2
block 109
 70
     0
 71
     0
 10
0.0
 20
0.0
 30
0.0
  3
block 109
  1

  0
POLYLINE
  5
34D
330
349
100
AcDbEntity
  8
\U+5716\U+5C64 1
370
     0
100
AcDb2dPolyline
 66
     1
 10
0.0
 20
0.0
 30
0.0
  0
VERTEX
  5
34E
330
34D
100
AcDbEntity
  8
\U+5716\U+5C64 1
370
     0
100
AcDbVertex
100
AcDb2dVertex
 10
237.8636741104826
 20
158.9750695704695
 30
0.0
  0
VERTEX
  5
34F
330
34D
100
AcDbEntity
  8
\U+5716\U+5C64 1
370
     0
100
AcDbVertex
100
AcDb2dVertex
 10
237.8636741104826
 20
158.9750695704695
 30
0.0
  0
SEQEND
  5
350
330
34D
100
AcDbEntity
  8
\U+5716\U+5C64 1
370
     0
  0
ENDBLK
  5
34C
330
349
100
AcDbEntity
  8
0
100
AcDbBlockEnd
  0
BLOCK
  5
353
330
351
100
AcDbEntity
  8
0
100
AcDbBlockBegin
  2
block 110
 70
     0
 71
     0
 10
0.0
 20
0.0
 30
0.0
  3
block 110
  1

  0
POLYLINE
  5
355
330
351
100
AcDbEntity
  8
\U+5716\U+5C64 1
370
     0
100
AcDb2dPolyline
 66
     1
 10
0.0
 20
0.0
 30
0.0
  0
VERTEX
  5
356
330
355
100
AcDbEntity
  8
\U+5716\U+5C64 1
370
     0
100
AcDbVertex
100
AcDb2dVertex
 10
250.9636583351319
 20
193.1314912917807
 30
0.0
  0
VERTEX
  5
357
330
355
100
AcDbEntity
  8
\U+5716\U+5C64 1
370
     0
100
AcDbVertex
100
AcDb2dVertex
 10
250.9636583351319
 20
193.1314912917807
 30
0.0
  0
SEQEND
  5
358
330
355
100
AcDbEntity
  8
\U+5716\U+5C64 1
370
     0
  0
ENDBLK
  5
354
330
351
100
AcDbEntity
  8
0
100
AcDbBlockEnd
  0
BLOCK
  5
35B
330
359
100
AcDbEntity
  8
0
100
AcDbBlockBegin
  2
block 111
 70
     0
 71
     0
 10
0.0
 20
0.0
 30
0.0
  3
block 111
  1

  0
INSERT
  5
35E
330
359
100
AcDbEntity
  8
\U+5716\U+5C64 1
100
AcDbBlockReference
  2
block 112
 10
0.0
 20
0.0
 30
0.0
  0
ENDBLK
  5
35C
330
359
100
AcDbEntity
  8
0
100
AcDbBlockEnd
  0
BLOCK
  5
35F
330
35D
100
AcDbEntity
  8
0
100
AcDbBlockBegin
  2
block 112
 70
     0
 71
     0
 10
0.0
 20
0.0
 30
0.0
  3
block 112
  1

  0
INSERT
  5
362
330
35D
100
AcDbEntity
  8
\U+5716\U+5C64 1
100
AcDbBlockReference
  2
block 113
 10
0.0
 20
0.0
 30
0.0
  0
INSERT
  5
36A
330
35D
100
AcDbEntity
  8
\U+5716\U+5C64 1
100
AcDbBlockReference
  2
block 114
 10
0.0
 20
0.0
 30
0.0
  0
INSERT
  5
372
330
35D
100
AcDbEntity
  8
\U+5716\U+5C64 1
100
AcDbBlockReference
  2
block 115
 10
0.0
 20
0.0
 30
0.0
  0
INSERT
  5
37A
330
35D
100
AcDbEntity
  8
\U+5716\U+5C64 1
100
AcDbBlockReference
  2
block 116
 10
0.0
 20
0.0
 30
0.0
  0
INSERT
  5
385
330
35D
100
AcDbEntity
  8
\U+5716\U+5C64 1
100
AcDbBlockReference
  2
block 117
 10
0.0
 20
0.0
 30
0.0
  0
INSERT
  5
390
330
35D
100
AcDbEntity
  8
\U+5716\U+5C64 1
100
AcDbBlockReference
  2
block 118
 10
0.0
 20
0.0
 30
0.0
  0
INSERT
  5
395
330
35D
100
AcDbEntity
  8
\U+5716\U+5C64 1
100
AcDbBlockReference
  2
block 119
 10
0.0
 20
0.0
 30
0.0
  0
INSERT
  5
39D
330
35D
100
AcDbEntity
  8
\U+5716\U+5C64 1
100
AcDbBlockReference
  2
block 120
 10
0.0
 20
0.0
 30
0.0
  0
INSERT
  5
3A5
330
35D
100
AcDbEntity
  8
\U+5716\U+5C64 1
100
AcDbBlockReference
  2
block 121
 10
0.0
 20
0.0
 30
0.0
  0
ENDBLK
  5
360
330
35D
100
AcDbEntity
  8
0
100
AcDbBlockEnd
  0
BLOCK
  5
363
330
361
100
AcDbEntity
  8
0
100
AcDbBlockBegin
  2
block 113
 70
     0
 71
     0
 10
0.0
 20
0.0
 30
0.0
  3
block 113
  1

  0
POLYLINE
  5
365
330
361
100
AcDbEntity
  8
\U+5716\U+5C64 1
 62
     2
370
    25
100
AcDb2dPolyline
 66
     1
 10
0.0
 20
0.0
 30
0.0
  0
VERTEX
  5
366
330
365
100
AcDbEntity
  8
\U+5716\U+5C64 1
 62
     2
370
    25
100
AcDbVertex
100
AcDb2dVertex
 10
119.1314804703152
 20
336.1915872595703
 30
0.0
  0
VERTEX
  5
367
330
365
100
AcDbEntity
  8
\U+5716\U+5C64 1
 62
     2
370
    25
100
AcDbVertex
100
AcDb2dVertex
 10
100.0616585957819
 20
355.2614091341036
 30
0.0
  0
SEQEND
  5
368
330
365
100
AcDbEntity
  8
\U+5716\U+5C64 1
370
    25
  0
ENDBLK
  5
364
330
361
100
AcDbEntity
  8
0
100
AcDbBlockEnd
  0
BLOCK
  5
36B
330
369
100
AcDbEntity
  8
0
100
AcDbBlockBegin
  2
block 114
 70
     0
 71
     0
 10
0.0
 20
0.0
 30
0.0
  3
block 114
  1

  0
POLYLINE
  5
36D
330
369
100
AcDbEntity
  8
\U+5716\U+5C64 1
 62
     2
370
    25
100
AcDb2dPolyline
 66
     1
 10
0.0
 20
0.0
 30
0.0
  0
VERTEX
  5
36E
330
36D
100
AcDbEntity
  8
\U+5716\U+5C64 1
 62
     2
370
    25
100
AcDbVertex
100
AcDb2dVertex
 10
60.64698416649387
 20
277.7072632106369
 30
0.0
  0
VERTEX
  5
36F
330
36D
100
AcDbEntity
  8
\U+5716\U+5C64 1
 62
     2
370
    25
100
AcDbVertex
100
AcDb2dVertex
 10
41.57733454684853
 20
296.7769128302822
 30
0.0
  0
SEQEND
  5
370
330
36D
100
AcDbEntity
  8
\U+5716\U+5C64 1
370
    25
  0
ENDBLK
  5
36C
330
369
100
AcDbEntity
  8
0
100
AcDbBlockEnd
  0
BLOCK
  5
373
330
371
100
AcDbEntity
  8
0
100
AcDbBlockBegin
  2
block 115
 70
     0
 71
     0
 10
0.0
 20
0.0
 30
0.0
  3
block 115
  1

  0
POLYLINE
  5
375
330
371
100
AcDbEntity
  8
\U+5716\U+5C64 1
 62
     2
370
    25
100
AcDb2dPolyline
 66
     1
 10
0.0
 20
0.0
 30
0.0
  0
VERTEX
  5
376
330
375
100
AcDbEntity
  8
\U+5716\U+5C64 1
 62
     2
370
    25
100
AcDbVertex
100
AcDb2dVertex
 10
99.00883672094886
 20
351.0501216347712
 30
0.0
  0
VERTEX
  5
377
330
375
100
AcDbEntity
  8
\U+5716\U+5C64 1
 62
     2
370
    25
100
AcDbVertex
100
AcDb2dVertex
 10
45.7886220461809
 20
297.8297347051154
 30
0.0
  0
SEQEND
  5
378
330
375
100
AcDbEntity
  8
\U+5716\U+5C64 1
370
    25
  0
ENDBLK
  5
374
330
371
100
AcDbEntity
  8
0
100
AcDbBlockEnd
  0
BLOCK
  5
37B
330
379
100
AcDbEntity
  8
0
100
AcDbBlockBegin
  2
block 116
 70
     0
 71
     0
 10
0.0
 20
0.0
 30
0.0
  3
block 116
  1

  0
POLYLINE
  5
37D
330
379
100
AcDbEntity
  8
\U+5716\U+5C64 1
370
     0
100
AcDb2dPolyline
 66
     1
 10
0.0
 20
0.0
 30
0.0
  0
VERTEX
  5
37E
330
37D
100
AcDbEntity
  8
\U+5716\U+5C64 1
370
     0
100
AcDbVertex
100
AcDb2dVertex
 10
98.57027577636033
 20
351.4886825793598
 30
0.0
  0
VERTEX
  5
37F
330
37D
100
AcDbEntity
  8
\U+5716\U+5C64 1
370
     0
100
AcDbVertex
100
AcDb2dVertex
 10
99.44756992042528
 20
350.6113884352948
 30
0.0
  0
VERTEX
  5
380
330
37D
100
AcDbEntity
  8
\U+5716\U+5C64 1
370
     0
100
AcDbVertex
100
AcDb2dVertex
 10
101.6408914080316
 20
353.6821763218539
 30
0.0
  0
VERTEX
  5
381
330
37D
100
AcDbEntity
  8
\U+5716\U+5C64 1
370
     0
100
AcDbVertex
100
AcDb2dVertex
 10
98.57027577636033
 20
351.4886825793598
 30
0.0
  0
SEQEND
  5
382
330
37D
100
AcDbEntity
  8
\U+5716\U+5C64 1
370
     0
  0
HATCH
  5
383
330
379
100
AcDbEntity
  8
\U+5716\U+5C64 1
 62
     2
100
AcDbHatch
 10
0.0
 20
0.0
 30
0.0
210
0.0
220
0.0
230
1.0
  2
SOLID
 70
     1
 71
     0
 91
        1
 92
        1
 93
        3
 72
     1
 10
98.57027577636033
 20
351.4886825793598
 11
99.44756992042528
 21
350.6113884352948
 72
     1
 10
99.44756992042528
 20
350.6113884352948
 11
101.6408914080316
 21
353.6821763218539
 72
     1
 10
101.6408914080316
 20
353.6821763218539
 11
98.57027577636033
 21
351.4886825793598
 97
        0
 75
     2
 76
     1
 98
        0
  0
ENDBLK
  5
37C
330
379
100
AcDbEntity
  8
0
100
AcDbBlockEnd
  0
BLOCK
  5
386
330
384
100
AcDbEntity
  8
0
100
AcDbBlockBegin
  2
block 117
 70
     0
 71
     0
 10
0.0
 20
0.0
 30
0.0
  3
block 117
  1

  0
POLYLINE
  5
388
330
384
100
AcDbEntity
  8
\U+5716\U+5C64 1
370
     0
100
AcDb2dPolyline
 66
     1
 10
0.0
 20
0.0
 30
0.0
  0
VERTEX
  5
389
330
388
100
AcDbEntity
  8
\U+5716\U+5C64 1
370
     0
100
AcDbVertex
100
AcDb2dVertex
 10
45.34988884670448
 20
298.2684679045918
 30
0.0
  0
VERTEX
  5
38A
330
388
100
AcDbEntity
  8
\U+5716\U+5C64 1
370
     0
100
AcDbVertex
100
AcDb2dVertex
 10
46.22735524565732
 20
297.3911737605268
 30
0.0
  0
VERTEX
  5
38B
330
388
100
AcDbEntity
  8
\U+5716\U+5C64 1
370
     0
100
AcDbVertex
100
AcDb2dVertex
 10
43.15656735909818
 20
295.1976800180326
 30
0.0
  0
VERTEX
  5
38C
330
388
100
AcDbEntity
  8
\U+5716\U+5C64 1
370
     0
100
AcDbVertex
100
AcDb2dVertex
 10
45.34988884670448
 20
298.2684679045918
 30
0.0
  0
SEQEND
  5
38D
330
388
100
AcDbEntity
  8
\U+5716\U+5C64 1
370
     0
  0
HATCH
  5
38E
330
384
100
AcDbEntity
  8
\U+5716\U+5C64 1
 62
     2
100
AcDbHatch
 10
0.0
 20
0.0
 30
0.0
210
0.0
220
0.0
230
1.0
  2
SOLID
 70
     1
 71
     0
 91
        1
 92
        1
 93
        3
 72
     1
 10
45.34988884670448
 20
298.2684679045918
 11
46.22735524565732
 21
297.3911737605268
 72
     1
 10
46.22735524565732
 20
297.3911737605268
 11
43.15656735909818
 21
295.1976800180326
 72
     1
 10
43.15656735909818
 20
295.1976800180326
 11
45.34988884670448
 21
298.2684679045918
 97
        0
 75
     2
 76
     1
 98
        0
  0
ENDBLK
  5
387
330
384
100
AcDbEntity
  8
0
100
AcDbBlockEnd
  0
BLOCK
  5
391
330
38F
100
AcDbEntity
  8
0
100
AcDbBlockBegin
  2
block 118
 70
     0
 71
     0
 10
0.0
 20
0.0
 30
0.0
  3
block 118
  1

  0
MTEXT
  5
393
330
38F
100
AcDbEntity
  8
\U+5716\U+5C64 1
 62
     2
100
AcDbMText
 10
65.680099735988
 20
320.9139567421134
 30
0.0
 40
4.838984876044339
 41
0.0
 71
     7
 72
     1
  1
\fTxt|b0|i0|c0|p34;\W1;11.11
 11
0.7071067657322372
 21
0.7071067966408575
 31
0.0
 73
     1
 44
1.0
  0
ENDBLK
  5
392
330
38F
100
AcDbEntity
  8
0
100
AcDbBlockEnd
  0
BLOCK
  5
396
330
394
100
AcDbEntity
  8
0
100
AcDbBlockBegin
  2
block 119
 70
     0
 71
     0
 10
0.0
 20
0.0
 30
0.0
  3
block 119
  1

  0
POLYLINE
  5
398
330
394
100
AcDbEntity
  8
\U+5716\U+5C64 1
370
     0
100
AcDb2dPolyline
 66
     1
 10
0.0
 20
0.0
 30
0.0
  0
VERTEX
  5
399
330
398
100
AcDbEntity
  8
\U+5716\U+5C64 1
370
     0
100
AcDbVertex
100
AcDb2dVertex
 10
120.7107132825648
 20
334.6123544473207
 30
0.0
  0
VERTEX
  5
39A
330
398
100
AcDbEntity
  8
\U+5716\U+5C64 1
370
     0
100
AcDbVertex
100
AcDb2dVertex
 10
120.7107132825648
 20
334.6123544473207
 30
0.0
  0
SEQEND
  5
39B
330
398
100
AcDbEntity
  8
\U+5716\U+5C64 1
370
     0
  0
ENDBLK
  5
397
330
394
100
AcDbEntity
  8
0
100
AcDbBlockEnd
  0
BLOCK
  5
39E
330
39C
100
AcDbEntity
  8
0
100
AcDbBlockBegin
  2
block 120
 70
     0
 71
     0
 10
0.0
 20
0.0
 30
0.0
  3
block 120
  1

  0
POLYLINE
  5
3A0
330
39C
100
AcDbEntity
  8
\U+5716\U+5C64 1
370
     0
100
AcDb2dPolyline
 66
     1
 10
0.0
 20
0.0
 30
0.0
  0
VERTEX
  5
3A1
330
3A0
100
AcDbEntity
  8
\U+5716\U+5C64 1
370
     0
100
AcDbVertex
100
AcDb2dVertex
 10
62.22621697874351
 20
276.1280303983873
 30
0.0
  0
VERTEX
  5
3A2
330
3A0
100
AcDbEntity
  8
\U+5716\U+5C64 1
370
     0
100
AcDbVertex
100
AcDb2dVertex
 10
62.22621697874351
 20
276.1280303983873
 30
0.0
  0
SEQEND
  5
3A3
330
3A0
100
AcDbEntity
  8
\U+5716\U+5C64 1
370
     0
  0
ENDBLK
  5
39F
330
39C
100
AcDbEntity
  8
0
100
AcDbBlockEnd
  0
BLOCK
  5
3A6
330
3A4
100
AcDbEntity
  8
0
100
AcDbBlockBegin
  2
block 121
 70
     0
 71
     0
 10
0.0
 20
0.0
 30
0.0
  3
block 121
  1

  0
POLYLINE
  5
3A8
330
3A4
100
AcDbEntity
  8
\U+5716\U+5C64 1
370
     0
100
AcDb2dPolyline
 66
     1
 10
0.0
 20
0.0
 30
0.0
  0
VERTEX
  5
3A9
330
3A8
100
AcDbEntity
  8
\U+5716\U+5C64 1
370
     0
100
AcDbVertex
100
AcDb2dVertex
 10
43.15656735909818
 20
295.1976800180326
 30
0.0
  0
VERTEX
  5
3AA
330
3A8
100
AcDbEntity
  8
\U+5716\U+5C64 1
370
     0
100
AcDbVertex
100
AcDb2dVertex
 10
43.15656735909818
 20
295.1976800180326
 30
0.0
  0
SEQEND
  5
3AB
330
3A8
100
AcDbEntity
  8
\U+5716\U+5C64 1
370
     0
  0
ENDBLK
  5
3A7
330
3A4
100
AcDbEntity
  8
0
100
AcDbBlockEnd
  0
BLOCK
  5
3AE
330
3AC
100
AcDbEntity
  8
0
100
AcDbBlockBegin
  2
block 122
 70
     0
 71
     0
 10
0.0
 20
0.0
 30
0.0
  3
block 122
  1

  0
SPLINE
  5
3B0
330
3AC
100
AcDbEntity
  8
\U+5716\U+5C64 1
 62
     7
370
    25
100
AcDbSpline
210
0.0
220
0.0
230
1.0
 70
     8
 71
     3
 72
     8
 73
     4
 74
     0
 42
0.0000000001
 43
0.0000000001
 40
0.0
 40
0.0
 40
0.0
 40
0.0
 40
1.0
 40
1.0
 40
1.0
 40
1.0
 10
141.7761080333974
 20
250.3574933846186
 30
0.0
 10
134.2657949210409
 20
250.0584588992275
 30
0.0
 10
127.9857262180525
 20
243.7783901962391
 30
0.0
 10
127.6866917326614
 20
236.2679048289948
 30
0.0
  0
ENDBLK
  5
3AF
330
3AC
100
AcDbEntity
  8
0
100
AcDbBlockEnd
  0
BLOCK
  5
3B3
330
3B1
100
AcDbEntity
  8
0
100
AcDbBlockBegin
  2
block 123
 70
     0
 71
     0
 10
0.0
 20
0.0
 30
0.0
  3
block 123
  1

  0
POLYLINE
  5
3B5
330
3B1
100
AcDbEntity
  8
\U+5716\U+5C64 1
 62
     7
370
    25
100
AcDb2dPolyline
 66
     1
 10
0.0
 20
0.0
 30
0.0
  0
VERTEX
  5
3B6
330
3B5
100
AcDbEntity
  8
\U+5716\U+5C64 1
 62
     7
370
    25
100
AcDbVertex
100
AcDb2dVertex
 10
141.7761080333974
 20
250.3574933846186
 30
0.0
  0
VERTEX
  5
3B7
330
3B5
100
AcDbEntity
  8
\U+5716\U+5C64 1
 62
     7
370
    25
100
AcDbVertex
100
AcDb2dVertex
 10
145.1803813829272
 20
250.535949448481
 30
0.0
  0
SEQEND
  5
3B8
330
3B5
100
AcDbEntity
  8
\U+5716\U+5C64 1
370
    25
  0
ENDBLK
  5
3B4
330
3B1
100
AcDbEntity
  8
0
100
AcDbBlockEnd
  0
BLOCK
  5
3BB
330
3B9
100
AcDbEntity
  8
0
100
AcDbBlockBegin
  2
block 124
 70
     0
 71
     0
 10
0.0
 20
0.0
 30
0.0
  3
block 124
  1

  0
POLYLINE
  5
3BD
330
3B9
100
AcDbEntity
  8
\U+5716\U+5C64 1
  6
AI-Linetype-27
 62
     4
370
    25
100
AcDb2dPolyline
 66
     1
 10
0.0
 20
0.0
 30
0.0
  0
VERTEX
  5
3BE
330
3BD
100
AcDbEntity
  8
\U+5716\U+5C64 1
  6
AI-Linetype-27
 62
     4
370
    25
100
AcDbVertex
100
AcDb2dVertex
 10
140.6943473373974
 20
235.4887959710317
 30
0.0
  0
VERTEX
  5
3BF
330
3BD
100
AcDbEntity
  8
\U+5716\U+5C64 1
  6
AI-Linetype-27
 62
     4
370
    25
100
AcDbVertex
100
AcDb2dVertex
 10
144.4166032099871
 20
235.4887959710317
 30
0.0
  0
SEQEND
  5
3C0
330
3BD
100
AcDbEntity
  8
\U+5716\U+5C64 1
  6
AI-Linetype-27
370
    25
  0
ENDBLK
  5
3BC
330
3B9
100
AcDbEntity
  8
0
100
AcDbBlockEnd
  0
BLOCK
  5
3C4
330
3C2
100
AcDbEntity
  8
0
100
AcDbBlockBegin
  2
block 125
 70
     0
 71
     0
 10
0.0
 20
0.0
 30
0.0
  3
block 125
  1

  0
POLYLINE
  5
3C6
330
3C2
100
AcDbEntity
  8
\U+5716\U+5C64 1
  6
AI-Linetype-28
 62
     4
370
    25
100
AcDb2dPolyline
 66
     1
 10
0.0
 20
0.0
 30
0.0
  0
VERTEX
  5
3C7
330
3C6
100
AcDbEntity
  8
\U+5716\U+5C64 1
  6
AI-Linetype-28
 62
     4
370
    25
100
AcDbVertex
100
AcDb2dVertex
 10
142.5553891462483
 20
233.6275819072929
 30
0.0
  0
VERTEX
  5
3C8
330
3C6
100
AcDbEntity
  8
\U+5716\U+5C64 1
  6
AI-Linetype-28
 62
     4
370
    25
100
AcDbVertex
100
AcDb2dVertex
 10
142.5553891462483
 20
237.3498377798826
 30
0.0
  0
SEQEND
  5
3C9
330
3C6
100
AcDbEntity
  8
\U+5716\U+5C64 1
  6
AI-Linetype-28
370
    25
  0
ENDBLK
  5
3C5
330
3C2
100
AcDbEntity
  8
0
100
AcDbBlockEnd
  0
BLOCK
  5
3CD
330
3CB
100
AcDbEntity
  8
0
100
AcDbBlockBegin
  2
block 126
 70
     0
 71
     0
 10
0.0
 20
0.0
 30
0.0
  3
block 126
  1

  0
POLYLINE
  5
3CF
330
3CB
100
AcDbEntity
  8
\U+5716\U+5C64 1
 62
     7
370
    25
100
AcDb2dPolyline
 66
     1
 10
0.0
 20
0.0
 30
0.0
  0
VERTEX
  5
3D0
330
3CF
100
AcDbEntity
  8
\U+5716\U+5C64 1
 62
     7
370
    25
100
AcDbVertex
100
AcDb2dVertex
 10
127.6866917326614
 20
236.2679048289948
 30
0.0
  0
VERTEX
  5
3D1
330
3CF
100
AcDbEntity
  8
\U+5716\U+5C64 1
 62
     7
370
    25
100
AcDbVertex
100
AcDb2dVertex
 10
127.508235668799
 20
232.8638037343528
 30
0.0
  0
SEQEND
  5
3D2
330
3CF
100
AcDbEntity
  8
\U+5716\U+5C64 1
370
    25
  0
ENDBLK
  5
3CE
330
3CB
100
AcDbEntity
  8
0
100
AcDbBlockEnd
  0
BLOCK
  5
3D5
330
3D3
100
AcDbEntity
  8
0
100
AcDbBlockBegin
  2
block 127
 70
     0
 71
     0
 10
0.0
 20
0.0
 30
0.0
  3
block 127
  1

  0
POLYLINE
  5
3D7
330
3D3
100
AcDbEntity
  8
\U+5716\U+5C64 1
 62
     5
370
    25
100
AcDb2dPolyline
 66
     1
 10
0.0
 20
0.0
 30
0.0
  0
VERTEX
  5
3D8
330
3D7
100
AcDbEntity
  8
\U+5716\U+5C64 1
 62
     5
370
    25
100
AcDbVertex
100
AcDb2dVertex
 10
184.4284853356178
 20
168.4986978125788
 30
0.0
  0
VERTEX
  5
3D9
330
3D7
100
AcDbEntity
  8
\U+5716\U+5C64 1
 62
     5
370
    25
100
AcDbVertex
100
AcDb2dVertex
 10
190.0240131140992
 20
161.337028593328
 30
0.0
  0
SEQEND
  5
3DA
330
3D7
100
AcDbEntity
  8
\U+5716\U+5C64 1
370
    25
  0
ENDBLK
  5
3D6
330
3D3
100
AcDbEntity
  8
0
100
AcDbBlockEnd
  0
BLOCK
  5
3DD
330
3DB
100
AcDbEntity
  8
0
100
AcDbBlockBegin
  2
block 128
 70
     0
 71
     0
 10
0.0
 20
0.0
 30
0.0
  3
block 128
  1

  0
POLYLINE
  5
3DF
330
3DB
100
AcDbEntity
  8
\U+5716\U+5C64 1
 62
     5
370
    25
100
AcDb2dPolyline
 66
     1
 10
0.0
 20
0.0
 30
0.0
  0
VERTEX
  5
3E0
330
3DF
100
AcDbEntity
  8
\U+5716\U+5C64 1
 62
     5
370
    25
100
AcDbVertex
100
AcDb2dVertex
 10
202.1008033046339
 20
186.1710157815949
 30
0.0
  0
VERTEX
  5
3E1
330
3DF
100
AcDbEntity
  8
\U+5716\U+5C64 1
 62
     5
370
    25
100
AcDbVertex
100
AcDb2dVertex
 10
220.4793663140321
 20
162.6471992706809
 30
0.0
  0
SEQEND
  5
3E2
330
3DF
100
AcDbEntity
  8
\U+5716\U+5C64 1
370
    25
  0
ENDBLK
  5
3DE
330
3DB
100
AcDbEntity
  8
0
100
AcDbBlockEnd
  0
BLOCK
  5
3E5
330
3E3
100
AcDbEntity
  8
0
100
AcDbBlockBegin
  2
block 129
 70
     0
 71
     0
 10
0.0
 20
0.0
 30
0.0
  3
block 129
  1

  0
SPLINE
  5
3E7
330
3E3
100
AcDbEntity
  8
\U+5716\U+5C64 1
 62
     5
370
    25
100
AcDbSpline
210
0.0
220
0.0
230
1.0
 70
     8
 71
     3
 72
    14
 73
    10
 74
     0
 42
0.0000000001
 43
0.0000000001
 40
0.0
 40
0.0
 40
0.0
 40
0.0
 40
1.0
 40
1.0
 40
1.0
 40
2.0
 40
2.0
 40
2.0
 40
3.0
 40
3.0
 40
3.0
 40
3.0
 10
109.2126995153677
 20
159.3226799342478
 30
0.0
 10
109.2126995153677
 20
155.298116733397
 30
0.0
 10
112.4750348372695
 20
152.0359536663831
 30
0.0
 10
116.4994257832325
 20
152.0359536663831
 30
0.0
 10
120.5236444743075
 20
152.0359536663831
 30
0.0
 10
123.7859797962093
 20
155.298116733397
 30
0.0
 10
123.7859797962093
 20
159.3226799342478
 30
0.0
 10
123.7859797962093
 20
159.3226799342478
 30
0.0
 10
123.7859797962093
 20
159.3226799342478
 30
0.0
 10
123.7859797962093
 20
159.3226799342478
 30
0.0
  0
ENDBLK
  5
3E6
330
3E3
100
AcDbEntity
  8
0
100
AcDbBlockEnd
  0
BLOCK
  5
3EA
330
3E8
100
AcDbEntity
  8
0
100
AcDbBlockBegin
  2
block 130
 70
     0
 71
     0
 10
0.0
 20
0.0
 30
0.0
  3
block 130
  1

  0
SPLINE
  5
3EC
330
3E8
100
AcDbEntity
  8
\U+5716\U+5C64 1
 62
     5
370
    25
100
AcDbSpline
210
0.0
220
0.0
230
1.0
 70
     8
 71
     3
 72
    14
 73
    10
 74
     0
 42
0.0000000001
 43
0.0000000001
 40
0.0
 40
0.0
 40
0.0
 40
0.0
 40
1.0
 40
1.0
 40
1.0
 40
2.0
 40
2.0
 40
2.0
 40
3.0
 40
3.0
 40
3.0
 40
3.0
 10
91.54072605612741
 20
159.3226799342478
 30
0.0
 10
91.54072605612741
 20
145.5381547850915
 30
0.0
 10
102.715072888964
 20
134.363635697367
 30
0.0
 10
116.4994257832325
 20
134.363635697367
 30
0.0
 10
130.283606422613
 20
134.363635697367
 30
0.0
 10
141.4581255103375
 20
145.5381547850915
 30
0.0
 10
141.4581255103375
 20
159.3226799342478
 30
0.0
 10
141.4581255103375
 20
159.3226799342478
 30
0.0
 10
141.4581255103375
 20
159.3226799342478
 30
0.0
 10
141.4581255103375
 20
159.3226799342478
 30
0.0
  0
ENDBLK
  5
3EB
330
3E8
100
AcDbEntity
  8
0
100
AcDbBlockEnd
  0
BLOCK
  5
3EF
330
3ED
100
AcDbEntity
  8
0
100
AcDbBlockBegin
  2
block 131
 70
     0
 71
     0
 10
0.0
 20
0.0
 30
0.0
  3
block 131
  1

  0
POLYLINE
  5
3F1
330
3ED
100
AcDbEntity
  8
\U+5716\U+5C64 1
 62
     5
370
    25
100
AcDb2dPolyline
 66
     1
 10
0.0
 20
0.0
 30
0.0
  0
VERTEX
  5
3F2
330
3F1
100
AcDbEntity
  8
\U+5716\U+5C64 1
 62
     5
370
    25
100
AcDbVertex
100
AcDb2dVertex
 10
184.1046461463694
 20
157.1922314807243
 30
0.0
  0
VERTEX
  5
3F3
330
3F1
100
AcDbEntity
  8
\U+5716\U+5C64 1
 62
     5
370
    25
100
AcDbVertex
100
AcDb2dVertex
 10
198.7976435743003
 20
167.4803269153253
 30
0.0
  0
SEQEND
  5
3F4
330
3F1
100
AcDbEntity
  8
\U+5716\U+5C64 1
370
    25
  0
ENDBLK
  5
3F0
330
3ED
100
AcDbEntity
  8
0
100
AcDbBlockEnd
  0
BLOCK
  5
3F7
330
3F5
100
AcDbEntity
  8
0
100
AcDbBlockBegin
  2
block 132
 70
     0
 71
     0
 10
0.0
 20
0.0
 30
0.0
  3
block 132
  1

  0
SPLINE
  5
3F9
330
3F5
100
AcDbEntity
  8
\U+5716\U+5C64 1
 62
     5
370
    25
100
AcDbSpline
210
0.0
220
0.0
230
1.0
 70
     8
 71
     3
 72
     8
 73
     4
 74
     0
 42
0.0000000001
 43
0.0000000001
 40
0.0
 40
0.0
 40
0.0
 40
0.0
 40
1.0
 40
1.0
 40
1.0
 40
1.0
 10
219.0706658408016
 20
164.4507079469738
 30
0.0
 10
214.2668215270998
 20
170.6808227324717
 30
0.0
 10
205.2131046191765
 20
172.0340571317991
 30
0.0
 10
198.7976435743003
 20
167.4803269153253
 30
0.0
  0
ENDBLK
  5
3F8
330
3F5
100
AcDbEntity
  8
0
100
AcDbBlockEnd
  0
BLOCK
  5
3FC
330
3FA
100
AcDbEntity
  8
0
100
AcDbBlockBegin
  2
block 133
 70
     0
 71
     0
 10
0.0
 20
0.0
 30
0.0
  3
block 133
  1

  0
POLYLINE
  5
3FE
330
3FA
100
AcDbEntity
  8
\U+5716\U+5C64 1
 62
     5
370
    25
100
AcDb2dPolyline
 66
     1
 10
0.0
 20
0.0
 30
0.0
  0
VERTEX
  5
3FF
330
3FE
100
AcDbEntity
  8
\U+5716\U+5C64 1
 62
     5
370
    25
100
AcDbVertex
100
AcDb2dVertex
 10
126.9222245401698
 20
235.596455275968
 30
0.0
  0
VERTEX
  5
400
330
3FE
100
AcDbEntity
  8
\U+5716\U+5C64 1
 62
     5
370
    25
100
AcDbVertex
100
AcDb2dVertex
 10
127.2381400045748
 20
238.6178060097004
 30
0.0
  0
VERTEX
  5
401
330
3FE
100
AcDbEntity
  8
\U+5716\U+5C64 1
 62
     5
370
    25
100
AcDbVertex
100
AcDb2dVertex
 10
128.1324873825417
 20
241.5211621452226
 30
0.0
  0
VERTEX
  5
402
330
3FE
100
AcDbEntity
  8
\U+5716\U+5C64 1
 62
     5
370
    25
100
AcDbVertex
100
AcDb2dVertex
 10
129.5715047160423
 20
244.1966250640557
 30
0.0
  0
VERTEX
  5
403
330
3FE
100
AcDbEntity
  8
\U+5716\U+5C64 1
 62
     5
370
    25
100
AcDbVertex
100
AcDb2dVertex
 10
131.5007594605008
 20
246.5434256567792
 30
0.0
  0
VERTEX
  5
404
330
3FE
100
AcDbEntity
  8
\U+5716\U+5C64 1
 62
     5
370
    25
100
AcDbVertex
100
AcDb2dVertex
 10
133.8475600532243
 20
248.4726804012377
 30
0.0
  0
VERTEX
  5
405
330
3FE
100
AcDbEntity
  8
\U+5716\U+5C64 1
 62
     5
370
    25
100
AcDbVertex
100
AcDb2dVertex
 10
136.5230229720574
 20
249.9116977347383
 30
0.0
  0
VERTEX
  5
406
330
3FE
100
AcDbEntity
  8
\U+5716\U+5C64 1
 62
     5
370
    25
100
AcDbVertex
100
AcDb2dVertex
 10
139.4263791075796
 20
250.8060451127052
 30
0.0
  0
VERTEX
  5
407
330
3FE
100
AcDbEntity
  8
\U+5716\U+5C64 1
 62
     5
370
    25
100
AcDbVertex
100
AcDb2dVertex
 10
142.447729841312
 20
251.1219605771103
 30
0.0
  0
SEQEND
  5
408
330
3FE
100
AcDbEntity
  8
\U+5716\U+5C64 1
370
    25
  0
POLYLINE
  5
409
330
3FA
100
AcDbEntity
  8
\U+5716\U+5C64 1
 62
     5
370
    25
100
AcDb2dPolyline
 66
     1
 10
0.0
 20
0.0
 30
0.0
  0
VERTEX
  5
40A
330
409
100
AcDbEntity
  8
\U+5716\U+5C64 1
 62
     5
370
    25
100
AcDbVertex
100
AcDb2dVertex
 10
142.447729841312
 20
251.1219605771103
 30
0.0
  0
VERTEX
  5
40B
330
409
100
AcDbEntity
  8
\U+5716\U+5C64 1
 62
     5
370
    25
100
AcDbVertex
100
AcDb2dVertex
 10
143.0282288135285
 20
251.183283317202
 30
0.0
  0
VERTEX
  5
40C
330
409
100
AcDbEntity
  8
\U+5716\U+5C64 1
 62
     5
370
    25
100
AcDbVertex
100
AcDb2dVertex
 10
143.5858178856546
 20
251.3565717344275
 30
0.0
  0
VERTEX
  5
40D
330
409
100
AcDbEntity
  8
\U+5716\U+5C64 1
 62
     5
370
    25
100
AcDbVertex
100
AcDb2dVertex
 10
144.0986206869272
 20
251.6352801430466
 30
0.0
  0
VERTEX
  5
40E
330
409
100
AcDbEntity
  8
\U+5716\U+5C64 1
 62
     5
370
    25
100
AcDbVertex
100
AcDb2dVertex
 10
144.5473446699017
 20
252.0087287400096
 30
0.0
  0
VERTEX
  5
40F
330
409
100
AcDbEntity
  8
\U+5716\U+5C64 1
 62
     5
370
    25
100
AcDbVertex
100
AcDb2dVertex
 10
144.9145920909005
 20
252.4624481147332
 30
0.0
  0
VERTEX
  5
410
330
409
100
AcDbEntity
  8
\U+5716\U+5C64 1
 62
     5
370
    25
100
AcDbVertex
100
AcDb2dVertex
 10
145.1862380491157
 20
252.9792127784274
 30
0.0
  0
VERTEX
  5
411
330
409
100
AcDbEntity
  8
\U+5716\U+5C64 1
 62
     5
370
    25
100
AcDbVertex
100
AcDb2dVertex
 10
145.3517749963858
 20
253.5388689092083
 30
0.0
  0
VERTEX
  5
412
330
409
100
AcDbEntity
  8
\U+5716\U+5C64 1
 62
     5
370
    25
100
AcDbVertex
100
AcDb2dVertex
 10
145.4050017567463
 20
254.1202291558643
 30
0.0
  0
VERTEX
  5
413
330
409
100
AcDbEntity
  8
\U+5716\U+5C64 1
 62
     5
370
    25
100
AcDbVertex
100
AcDb2dVertex
 10
145.3438512715425
 20
254.7009003829688
 30
0.0
  0
VERTEX
  5
414
330
409
100
AcDbEntity
  8
\U+5716\U+5C64 1
 62
     5
370
    25
100
AcDbVertex
100
AcDb2dVertex
 10
145.170562854317
 20
255.258317200207
 30
0.0
  0
VERTEX
  5
415
330
409
100
AcDbEntity
  8
\U+5716\U+5C64 1
 62
     5
370
    25
100
AcDbVertex
100
AcDb2dVertex
 10
144.8918544456979
 20
255.7711200014796
 30
0.0
  0
VERTEX
  5
416
330
409
100
AcDbEntity
  8
\U+5716\U+5C64 1
 62
     5
370
    25
100
AcDbVertex
100
AcDb2dVertex
 10
144.5184058487349
 20
256.2198439844541
 30
0.0
  0
VERTEX
  5
417
330
409
100
AcDbEntity
  8
\U+5716\U+5C64 1
 62
     5
370
    25
100
AcDbVertex
100
AcDb2dVertex
 10
144.0645142191234
 20
256.5870914054528
 30
0.0
  0
VERTEX
  5
418
330
409
100
AcDbEntity
  8
\U+5716\U+5C64 1
 62
     5
370
    25
100
AcDbVertex
100
AcDb2dVertex
 10
143.5479218103171
 20
256.8587373636681
 30
0.0
  0
VERTEX
  5
419
330
409
100
AcDbEntity
  8
\U+5716\U+5C64 1
 62
     5
370
    25
100
AcDbVertex
100
AcDb2dVertex
 10
142.9880934246483
 20
257.0242743109382
 30
0.0
  0
VERTEX
  5
41A
330
409
100
AcDbEntity
  8
\U+5716\U+5C64 1
 62
     5
370
    25
100
AcDbVertex
100
AcDb2dVertex
 10
142.4067331779923
 20
257.0775010712986
 30
0.0
  0
SEQEND
  5
41B
330
409
100
AcDbEntity
  8
\U+5716\U+5C64 1
370
    25
  0
POLYLINE
  5
41C
330
3FA
100
AcDbEntity
  8
\U+5716\U+5C64 1
 62
     5
370
    25
100
AcDb2dPolyline
 66
     1
 10
0.0
 20
0.0
 30
0.0
  0
VERTEX
  5
41D
330
41C
100
AcDbEntity
  8
\U+5716\U+5C64 1
 62
     5
370
    25
100
AcDbVertex
100
AcDb2dVertex
 10
142.4067331779923
 20
257.0775010712986
 30
0.0
  0
VERTEX
  5
41E
330
41C
100
AcDbEntity
  8
\U+5716\U+5C64 1
 62
     5
370
    25
100
AcDbVertex
100
AcDb2dVertex
 10
138.234203028437
 20
256.6411794402528
 30
0.0
  0
VERTEX
  5
41F
330
41C
100
AcDbEntity
  8
\U+5716\U+5C64 1
 62
     5
370
    25
100
AcDbVertex
100
AcDb2dVertex
 10
134.224970512609
 20
255.4061118940235
 30
0.0
  0
VERTEX
  5
420
330
41C
100
AcDbEntity
  8
\U+5716\U+5C64 1
 62
     5
370
    25
100
AcDbVertex
100
AcDb2dVertex
 10
130.5301031671951
 20
253.4189795072312
 30
0.0
  0
VERTEX
  5
421
330
41C
100
AcDbEntity
  8
\U+5716\U+5C64 1
 62
     5
370
    25
100
AcDbVertex
100
AcDb2dVertex
 10
127.2894719611685
 20
250.7547131561116
 30
0.0
  0
VERTEX
  5
422
330
41C
100
AcDbEntity
  8
\U+5716\U+5C64 1
 62
     5
370
    25
100
AcDbVertex
100
AcDb2dVertex
 10
124.6252056100488
 20
247.5140819500849
 30
0.0
  0
VERTEX
  5
423
330
41C
100
AcDbEntity
  8
\U+5716\U+5C64 1
 62
     5
370
    25
100
AcDbVertex
100
AcDb2dVertex
 10
122.6380732232565
 20
243.819214604671
 30
0.0
  0
VERTEX
  5
424
330
41C
100
AcDbEntity
  8
\U+5716\U+5C64 1
 62
     5
370
    25
100
AcDbVertex
100
AcDb2dVertex
 10
121.4030056770272
 20
239.8098098339552
 30
0.0
  0
VERTEX
  5
425
330
41C
100
AcDbEntity
  8
\U+5716\U+5C64 1
 62
     5
370
    25
100
AcDbVertex
100
AcDb2dVertex
 10
120.9666840459814
 20
235.6374519392878
 30
0.0
  0
SEQEND
  5
426
330
41C
100
AcDbEntity
  8
\U+5716\U+5C64 1
370
    25
  0
POLYLINE
  5
427
330
3FA
100
AcDbEntity
  8
\U+5716\U+5C64 1
 62
     5
370
    25
100
AcDb2dPolyline
 66
     1
 10
0.0
 20
0.0
 30
0.0
  0
VERTEX
  5
428
330
427
100
AcDbEntity
  8
\U+5716\U+5C64 1
 62
     5
370
    25
100
AcDbVertex
100
AcDb2dVertex
 10
120.9666840459814
 20
235.6374519392878
 30
0.0
  0
VERTEX
  5
429
330
427
100
AcDbEntity
  8
\U+5716\U+5C64 1
 62
     5
370
    25
100
AcDbVertex
100
AcDb2dVertex
 10
121.0199108063419
 20
235.0560916926317
 30
0.0
  0
VERTEX
  5
42A
330
427
100
AcDbEntity
  8
\U+5716\U+5C64 1
 62
     5
370
    25
100
AcDbVertex
100
AcDb2dVertex
 10
121.1854477536119
 20
234.496263306963
 30
0.0
  0
VERTEX
  5
42B
330
427
100
AcDbEntity
  8
\U+5716\U+5C64 1
 62
     5
370
    25
100
AcDbVertex
100
AcDb2dVertex
 10
121.4570937118272
 20
233.9796708981566
 30
0.0
  0
VERTEX
  5
42C
330
427
100
AcDbEntity
  8
\U+5716\U+5C64 1
 62
     5
370
    25
100
AcDbVertex
100
AcDb2dVertex
 10
121.8243411328259
 20
233.5257792685452
 30
0.0
  0
VERTEX
  5
42D
330
427
100
AcDbEntity
  8
\U+5716\U+5C64 1
 62
     5
370
    25
100
AcDbVertex
100
AcDb2dVertex
 10
122.2730651158004
 20
233.1523306715821
 30
0.0
  0
VERTEX
  5
42E
330
427
100
AcDbEntity
  8
\U+5716\U+5C64 1
 62
     5
370
    25
100
AcDbVertex
100
AcDb2dVertex
 10
122.785867917073
 20
232.873622262963
 30
0.0
  0
VERTEX
  5
42F
330
427
100
AcDbEntity
  8
\U+5716\U+5C64 1
 62
     5
370
    25
100
AcDbVertex
100
AcDb2dVertex
 10
123.3432847343113
 20
232.7003338457375
 30
0.0
  0
VERTEX
  5
430
330
427
100
AcDbEntity
  8
\U+5716\U+5C64 1
 62
     5
370
    25
100
AcDbVertex
100
AcDb2dVertex
 10
123.9239559614157
 20
232.6391833605337
 30
0.0
  0
VERTEX
  5
431
330
427
100
AcDbEntity
  8
\U+5716\U+5C64 1
 62
     5
370
    25
100
AcDbVertex
100
AcDb2dVertex
 10
124.5051439531838
 20
232.6924101208942
 30
0.0
  0
VERTEX
  5
432
330
427
100
AcDbEntity
  8
\U+5716\U+5C64 1
 62
     5
370
    25
100
AcDbVertex
100
AcDb2dVertex
 10
125.0649723388526
 20
232.8579470681643
 30
0.0
  0
VERTEX
  5
433
330
427
100
AcDbEntity
  8
\U+5716\U+5C64 1
 62
     5
370
    25
100
AcDbVertex
100
AcDb2dVertex
 10
125.5817370025469
 20
233.1295930263796
 30
0.0
  0
VERTEX
  5
434
330
427
100
AcDbEntity
  8
\U+5716\U+5C64 1
 62
     5
370
    25
100
AcDbVertex
100
AcDb2dVertex
 10
126.0354563772704
 20
233.4968404473783
 30
0.0
  0
VERTEX
  5
435
330
427
100
AcDbEntity
  8
\U+5716\U+5C64 1
 62
     5
370
    25
100
AcDbVertex
100
AcDb2dVertex
 10
126.4089049742335
 20
233.9455644303528
 30
0.0
  0
VERTEX
  5
436
330
427
100
AcDbEntity
  8
\U+5716\U+5C64 1
 62
     5
370
    25
100
AcDbVertex
100
AcDb2dVertex
 10
126.6876133828526
 20
234.4583672316254
 30
0.0
  0
VERTEX
  5
437
330
427
100
AcDbEntity
  8
\U+5716\U+5C64 1
 62
     5
370
    25
100
AcDbVertex
100
AcDb2dVertex
 10
126.860901800078
 20
235.0157840488636
 30
0.0
  0
VERTEX
  5
438
330
427
100
AcDbEntity
  8
\U+5716\U+5C64 1
 62
     5
370
    25
100
AcDbVertex
100
AcDb2dVertex
 10
126.9222245401698
 20
235.596455275968
 30
0.0
  0
SEQEND
  5
439
330
427
100
AcDbEntity
  8
\U+5716\U+5C64 1
370
    25
  0
ENDBLK
  5
3FD
330
3FA
100
AcDbEntity
  8
0
100
AcDbBlockEnd
  0
BLOCK
  5
43C
330
43A
100
AcDbEntity
  8
0
100
AcDbBlockBegin
  2
block 134
 70
     0
 71
     0
 10
0.0
 20
0.0
 30
0.0
  3
block 134
  1

  0
INSERT
  5
43F
330
43A
100
AcDbEntity
  8
\U+5716\U+5C64 1
100
AcDbBlockReference
  2
block 135
 10
0.0
 20
0.0
 30
0.0
  0
ENDBLK
  5
43D
330
43A
100
AcDbEntity
  8
0
100
AcDbBlockEnd
  0
BLOCK
  5
440
330
43E
100
AcDbEntity
  8
0
100
AcDbBlockBegin
  2
block 135
 70
     0
 71
     0
 10
0.0
 20
0.0
 30
0.0
  3
block 135
  1

  0
INSERT
  5
443
330
43E
100
AcDbEntity
  8
\U+5716\U+5C64 1
100
AcDbBlockReference
  2
block 136
 10
0.0
 20
0.0
 30
0.0
  0
INSERT
  5
44B
330
43E
100
AcDbEntity
  8
\U+5716\U+5C64 1
100
AcDbBlockReference
  2
block 137
 10
0.0
 20
0.0
 30
0.0
  0
INSERT
  5
453
330
43E
100
AcDbEntity
  8
\U+5716\U+5C64 1
100
AcDbBlockReference
  2
block 138
 10
0.0
 20
0.0
 30
0.0
  0
INSERT
  5
45B
330
43E
100
AcDbEntity
  8
\U+5716\U+5C64 1
100
AcDbBlockReference
  2
block 139
 10
0.0
 20
0.0
 30
0.0
  0
INSERT
  5
466
330
43E
100
AcDbEntity
  8
\U+5716\U+5C64 1
100
AcDbBlockReference
  2
block 140
 10
0.0
 20
0.0
 30
0.0
  0
INSERT
  5
471
330
43E
100
AcDbEntity
  8
\U+5716\U+5C64 1
100
AcDbBlockReference
  2
block 141
 10
0.0
 20
0.0
 30
0.0
  0
INSERT
  5
476
330
43E
100
AcDbEntity
  8
\U+5716\U+5C64 1
100
AcDbBlockReference
  2
block 142
 10
0.0
 20
0.0
 30
0.0
  0
INSERT
  5
47E
330
43E
100
AcDbEntity
  8
\U+5716\U+5C64 1
100
AcDbBlockReference
  2
block 143
 10
0.0
 20
0.0
 30
0.0
  0
INSERT
  5
486
330
43E
100
AcDbEntity
  8
\U+5716\U+5C64 1
100
AcDbBlockReference
  2
block 144
 10
0.0
 20
0.0
 30
0.0
  0
ENDBLK
  5
441
330
43E
100
AcDbEntity
  8
0
100
AcDbBlockEnd
  0
BLOCK
  5
444
330
442
100
AcDbEntity
  8
0
100
AcDbBlockBegin
  2
block 136
 70
     0
 71
     0
 10
0.0
 20
0.0
 30
0.0
  3
block 136
  1

  0
POLYLINE
  5
446
330
442
100
AcDbEntity
  8
\U+5716\U+5C64 1
 62
     2
370
    25
100
AcDb2dPolyline
 66
     1
 10
0.0
 20
0.0
 30
0.0
  0
VERTEX
  5
447
330
446
100
AcDbEntity
  8
\U+5716\U+5C64 1
 62
     2
370
    25
100
AcDbVertex
100
AcDb2dVertex
 10
114.6382117194937
 20
218.3661433492984
 30
0.0
  0
VERTEX
  5
448
330
446
100
AcDbEntity
  8
\U+5716\U+5C64 1
 62
     2
370
    25
100
AcDbVertex
100
AcDb2dVertex
 10
114.6382117194937
 20
187.9362838727744
 30
0.0
  0
SEQEND
  5
449
330
446
100
AcDbEntity
  8
\U+5716\U+5C64 1
370
    25
  0
ENDBLK
  5
445
330
442
100
AcDbEntity
  8
0
100
AcDbBlockEnd
  0
BLOCK
  5
44C
330
44A
100
AcDbEntity
  8
0
100
AcDbBlockBegin
  2
block 137
 70
     0
 71
     0
 10
0.0
 20
0.0
 30
0.0
  3
block 137
  1

  0
POLYLINE
  5
44E
330
44A
100
AcDbEntity
  8
\U+5716\U+5C64 1
 62
     2
370
    25
100
AcDb2dPolyline
 66
     1
 10
0.0
 20
0.0
 30
0.0
  0
VERTEX
  5
44F
330
44E
100
AcDbEntity
  8
\U+5716\U+5C64 1
 62
     2
370
    25
100
AcDbVertex
100
AcDb2dVertex
 10
142.5553891462483
 20
231.3941250308064
 30
0.0
  0
VERTEX
  5
450
330
44E
100
AcDbEntity
  8
\U+5716\U+5C64 1
 62
     2
370
    25
100
AcDbVertex
100
AcDb2dVertex
 10
142.5553891462483
 20
187.9362838727744
 30
0.0
  0
SEQEND
  5
451
330
44E
100
AcDbEntity
  8
\U+5716\U+5C64 1
370
    25
  0
ENDBLK
  5
44D
330
44A
100
AcDbEntity
  8
0
100
AcDbBlockEnd
  0
BLOCK
  5
454
330
452
100
AcDbEntity
  8
0
100
AcDbBlockBegin
  2
block 138
 70
     0
 71
     0
 10
0.0
 20
0.0
 30
0.0
  3
block 138
  1

  0
POLYLINE
  5
456
330
452
100
AcDbEntity
  8
\U+5716\U+5C64 1
 62
     2
370
    25
100
AcDb2dPolyline
 66
     1
 10
0.0
 20
0.0
 30
0.0
  0
VERTEX
  5
457
330
456
100
AcDbEntity
  8
\U+5716\U+5C64 1
 62
     2
370
    25
100
AcDbVertex
100
AcDb2dVertex
 10
118.3604675920834
 20
190.169740749261
 30
0.0
  0
VERTEX
  5
458
330
456
100
AcDbEntity
  8
\U+5716\U+5C64 1
 62
     2
370
    25
100
AcDbVertex
100
AcDb2dVertex
 10
138.8331332736586
 20
190.169740749261
 30
0.0
  0
SEQEND
  5
459
330
456
100
AcDbEntity
  8
\U+5716\U+5C64 1
370
    25
  0
ENDBLK
  5
455
330
452
100
AcDbEntity
  8
0
100
AcDbBlockEnd
  0
BLOCK
  5
45C
330
45A
100
AcDbEntity
  8
0
100
AcDbBlockBegin
  2
block 139
 70
     0
 71
     0
 10
0.0
 20
0.0
 30
0.0
  3
block 139
  1

  0
POLYLINE
  5
45E
330
45A
100
AcDbEntity
  8
\U+5716\U+5C64 1
370
     0
100
AcDb2dPolyline
 66
     1
 10
0.0
 20
0.0
 30
0.0
  0
VERTEX
  5
45F
330
45E
100
AcDbEntity
  8
\U+5716\U+5C64 1
370
     0
100
AcDbVertex
100
AcDb2dVertex
 10
118.3604675920834
 20
190.7902028554699
 30
0.0
  0
VERTEX
  5
460
330
45E
100
AcDbEntity
  8
\U+5716\U+5C64 1
370
     0
100
AcDbVertex
100
AcDb2dVertex
 10
118.3604675920834
 20
189.5492786430521
 30
0.0
  0
VERTEX
  5
461
330
45E
100
AcDbEntity
  8
\U+5716\U+5C64 1
370
     0
100
AcDbVertex
100
AcDb2dVertex
 10
114.6382117194937
 20
190.169740749261
 30
0.0
  0
VERTEX
  5
462
330
45E
100
AcDbEntity
  8
\U+5716\U+5C64 1
370
     0
100
AcDbVertex
100
AcDb2dVertex
 10
118.3604675920834
 20
190.7902028554699
 30
0.0
  0
SEQEND
  5
463
330
45E
100
AcDbEntity
  8
\U+5716\U+5C64 1
370
     0
  0
HATCH
  5
464
330
45A
100
AcDbEntity
  8
\U+5716\U+5C64 1
 62
     2
100
AcDbHatch
 10
0.0
 20
0.0
 30
0.0
210
0.0
220
0.0
230
1.0
  2
SOLID
 70
     1
 71
     0
 91
        1
 92
        1
 93
        3
 72
     1
 10
118.3604675920834
 20
190.7902028554699
 11
118.3604675920834
 21
189.5492786430521
 72
     1
 10
118.3604675920834
 20
189.5492786430521
 11
114.6382117194937
 21
190.169740749261
 72
     1
 10
114.6382117194937
 20
190.169740749261
 11
118.3604675920834
 21
190.7902028554699
 97
        0
 75
     2
 76
     1
 98
        0
  0
ENDBLK
  5
45D
330
45A
100
AcDbEntity
  8
0
100
AcDbBlockEnd
  0
BLOCK
  5
467
330
465
100
AcDbEntity
  8
0
100
AcDbBlockBegin
  2
block 140
 70
     0
 71
     0
 10
0.0
 20
0.0
 30
0.0
  3
block 140
  1

  0
POLYLINE
  5
469
330
465
100
AcDbEntity
  8
\U+5716\U+5C64 1
370
     0
100
AcDb2dPolyline
 66
     1
 10
0.0
 20
0.0
 30
0.0
  0
VERTEX
  5
46A
330
469
100
AcDbEntity
  8
\U+5716\U+5C64 1
370
     0
100
AcDbVertex
100
AcDb2dVertex
 10
138.8331332736586
 20
190.7902028554699
 30
0.0
  0
VERTEX
  5
46B
330
469
100
AcDbEntity
  8
\U+5716\U+5C64 1
370
     0
100
AcDbVertex
100
AcDb2dVertex
 10
138.8331332736586
 20
189.5492786430521
 30
0.0
  0
VERTEX
  5
46C
330
469
100
AcDbEntity
  8
\U+5716\U+5C64 1
370
     0
100
AcDbVertex
100
AcDb2dVertex
 10
142.5553891462483
 20
190.169740749261
 30
0.0
  0
VERTEX
  5
46D
330
469
100
AcDbEntity
  8
\U+5716\U+5C64 1
370
     0
100
AcDbVertex
100
AcDb2dVertex
 10
138.8331332736586
 20
190.7902028554699
 30
0.0
  0
SEQEND
  5
46E
330
469
100
AcDbEntity
  8
\U+5716\U+5C64 1
370
     0
  0
HATCH
  5
46F
330
465
100
AcDbEntity
  8
\U+5716\U+5C64 1
 62
     2
100
AcDbHatch
 10
0.0
 20
0.0
 30
0.0
210
0.0
220
0.0
230
1.0
  2
SOLID
 70
     1
 71
     0
 91
        1
 92
        1
 93
        3
 72
     1
 10
138.8331332736586
 20
190.7902028554699
 11
138.8331332736586
 21
189.5492786430521
 72
     1
 10
138.8331332736586
 20
189.5492786430521
 11
142.5553891462483
 21
190.169740749261
 72
     1
 10
142.5553891462483
 20
190.169740749261
 11
138.8331332736586
 21
190.7902028554699
 97
        0
 75
     2
 76
     1
 98
        0
  0
ENDBLK
  5
468
330
465
100
AcDbEntity
  8
0
100
AcDbBlockEnd
  0
BLOCK
  5
472
330
470
100
AcDbEntity
  8
0
100
AcDbBlockBegin
  2
block 141
 70
     0
 71
     0
 10
0.0
 20
0.0
 30
0.0
  3
block 141
  1

  0
MTEXT
  5
474
330
470
100
AcDbEntity
  8
\U+5716\U+5C64 1
 62
     2
100
AcDbMText
 10
120.5229554547559
 20
192.4273133100533
 30
0.0
 40
4.838984876044339
 41
0.0
 71
     7
 72
     1
  1
\fTxt|b0|i0|c0|p34;\W1;3.75
 73
     1
 44
1.0
  0
ENDBLK
  5
473
330
470
100
AcDbEntity
  8
0
100
AcDbBlockEnd
  0
BLOCK
  5
477
330
475
100
AcDbEntity
  8
0
100
AcDbBlockBegin
  2
block 142
 70
     0
 71
     0
 10
0.0
 20
0.0
 30
0.0
  3
block 142
  1

  0
POLYLINE
  5
479
330
475
100
AcDbEntity
  8
\U+5716\U+5C64 1
370
     0
100
AcDb2dPolyline
 66
     1
 10
0.0
 20
0.0
 30
0.0
  0
VERTEX
  5
47A
330
479
100
AcDbEntity
  8
\U+5716\U+5C64 1
370
     0
100
AcDbVertex
100
AcDb2dVertex
 10
114.6382117194937
 20
220.599600225785
 30
0.0
  0
VERTEX
  5
47B
330
479
100
AcDbEntity
  8
\U+5716\U+5C64 1
370
     0
100
AcDbVertex
100
AcDb2dVertex
 10
114.6382117194937
 20
220.599600225785
 30
0.0
  0
SEQEND
  5
47C
330
479
100
AcDbEntity
  8
\U+5716\U+5C64 1
370
     0
  0
ENDBLK
  5
478
330
475
100
AcDbEntity
  8
0
100
AcDbBlockEnd
  0
BLOCK
  5
47F
330
47D
100
AcDbEntity
  8
0
100
AcDbBlockBegin
  2
block 143
 70
     0
 71
     0
 10
0.0
 20
0.0
 30
0.0
  3
block 143
  1

  0
POLYLINE
  5
481
330
47D
100
AcDbEntity
  8
\U+5716\U+5C64 1
370
     0
100
AcDb2dPolyline
 66
     1
 10
0.0
 20
0.0
 30
0.0
  0
VERTEX
  5
482
330
481
100
AcDbEntity
  8
\U+5716\U+5C64 1
370
     0
100
AcDbVertex
100
AcDb2dVertex
 10
142.5553891462483
 20
233.6275819072929
 30
0.0
  0
VERTEX
  5
483
330
481
100
AcDbEntity
  8
\U+5716\U+5C64 1
370
     0
100
AcDbVertex
100
AcDb2dVertex
 10
142.5553891462483
 20
233.6275819072929
 30
0.0
  0
SEQEND
  5
484
330
481
100
AcDbEntity
  8
\U+5716\U+5C64 1
370
     0
  0
ENDBLK
  5
480
330
47D
100
AcDbEntity
  8
0
100
AcDbBlockEnd
  0
BLOCK
  5
487
330
485
100
AcDbEntity
  8
0
100
AcDbBlockBegin
  2
block 144
 70
     0
 71
     0
 10
0.0
 20
0.0
 30
0.0
  3
block 144
  1

  0
POLYLINE
  5
489
330
485
100
AcDbEntity
  8
\U+5716\U+5C64 1
370
     0
100
AcDb2dPolyline
 66
     1
 10
0.0
 20
0.0
 30
0.0
  0
VERTEX
  5
48A
330
489
100
AcDbEntity
  8
\U+5716\U+5C64 1
370
     0
100
AcDbVertex
100
AcDb2dVertex
 10
142.5553891462483
 20
190.169740749261
 30
0.0
  0
VERTEX
  5
48B
330
489
100
AcDbEntity
  8
\U+5716\U+5C64 1
370
     0
100
AcDbVertex
100
AcDb2dVertex
 10
142.5553891462483
 20
190.169740749261
 30
0.0
  0
SEQEND
  5
48C
330
489
100
AcDbEntity
  8
\U+5716\U+5C64 1
370
     0
  0
ENDBLK
  5
488
330
485
100
AcDbEntity
  8
0
100
AcDbBlockEnd
  0
BLOCK
  5
48F
330
48D
100
AcDbEntity
  8
0
100
AcDbBlockBegin
  2
block 145
 70
     0
 71
     0
 10
0.0
 20
0.0
 30
0.0
  3
block 145
  1

  0
INSERT
  5
492
330
48D
100
AcDbEntity
  8
\U+5716\U+5C64 1
100
AcDbBlockReference
  2
block 146
 10
0.0
 20
0.0
 30
0.0
  0
ENDBLK
  5
490
330
48D
100
AcDbEntity
  8
0
100
AcDbBlockEnd
  0
BLOCK
  5
493
330
491
100
AcDbEntity
  8
0
100
AcDbBlockBegin
  2
block 146
 70
     0
 71
     0
 10
0.0
 20
0.0
 30
0.0
  3
block 146
  1

  0
INSERT
  5
496
330
491
100
AcDbEntity
  8
\U+5716\U+5C64 1
100
AcDbBlockReference
  2
block 147
 10
0.0
 20
0.0
 30
0.0
  0
INSERT
  5
49E
330
491
100
AcDbEntity
  8
\U+5716\U+5C64 1
100
AcDbBlockReference
  2
block 148
 10
0.0
 20
0.0
 30
0.0
  0
INSERT
  5
4A6
330
491
100
AcDbEntity
  8
\U+5716\U+5C64 1
100
AcDbBlockReference
  2
block 149
 10
0.0
 20
0.0
 30
0.0
  0
INSERT
  5
4AE
330
491
100
AcDbEntity
  8
\U+5716\U+5C64 1
100
AcDbBlockReference
  2
block 150
 10
0.0
 20
0.0
 30
0.0
  0
INSERT
  5
4B6
330
491
100
AcDbEntity
  8
\U+5716\U+5C64 1
100
AcDbBlockReference
  2
block 151
 10
0.0
 20
0.0
 30
0.0
  0
INSERT
  5
4BE
330
491
100
AcDbEntity
  8
\U+5716\U+5C64 1
100
AcDbBlockReference
  2
block 152
 10
0.0
 20
0.0
 30
0.0
  0
INSERT
  5
4C9
330
491
100
AcDbEntity
  8
\U+5716\U+5C64 1
100
AcDbBlockReference
  2
block 153
 10
0.0
 20
0.0
 30
0.0
  0
INSERT
  5
4D4
330
491
100
AcDbEntity
  8
\U+5716\U+5C64 1
100
AcDbBlockReference
  2
block 154
 10
0.0
 20
0.0
 30
0.0
  0
INSERT
  5
4D9
330
491
100
AcDbEntity
  8
\U+5716\U+5C64 1
100
AcDbBlockReference
  2
block 155
 10
0.0
 20
0.0
 30
0.0
  0
INSERT
  5
4E1
330
491
100
AcDbEntity
  8
\U+5716\U+5C64 1
100
AcDbBlockReference
  2
block 156
 10
0.0
 20
0.0
 30
0.0
  0
INSERT
  5
4E9
330
491
100
AcDbEntity
  8
\U+5716\U+5C64 1
100
AcDbBlockReference
  2
block 157
 10
0.0
 20
0.0
 30
0.0
  0
ENDBLK
  5
494
330
491
100
AcDbEntity
  8
0
100
AcDbBlockEnd
  0
BLOCK
  5
497
330
495
100
AcDbEntity
  8
0
100
AcDbBlockBegin
  2
block 147
 70
     0
 71
     0
 10
0.0
 20
0.0
 30
0.0
  3
block 147
  1

  0
POLYLINE
  5
499
330
495
100
AcDbEntity
  8
\U+5716\U+5C64 1
 62
     2
370
    25
100
AcDb2dPolyline
 66
     1
 10
0.0
 20
0.0
 30
0.0
  0
VERTEX
  5
49A
330
499
100
AcDbEntity
  8
\U+5716\U+5C64 1
 62
     2
370
    25
100
AcDbVertex
100
AcDb2dVertex
 10
146.6498878315858
 20
235.4887959710317
 30
0.0
  0
VERTEX
  5
49B
330
499
100
AcDbEntity
  8
\U+5716\U+5C64 1
 62
     2
370
    25
100
AcDbVertex
100
AcDb2dVertex
 10
155.6984370928722
 20
235.4887959710317
 30
0.0
  0
SEQEND
  5
49C
330
499
100
AcDbEntity
  8
\U+5716\U+5C64 1
370
    25
  0
ENDBLK
  5
498
330
495
100
AcDbEntity
  8
0
100
AcDbBlockEnd
  0
BLOCK
  5
49F
330
49D
100
AcDbEntity
  8
0
100
AcDbBlockBegin
  2
block 148
 70
     0
 71
     0
 10
0.0
 20
0.0
 30
0.0
  3
block 148
  1

  0
POLYLINE
  5
4A1
330
49D
100
AcDbEntity
  8
\U+5716\U+5C64 1
 62
     2
370
    25
100
AcDb2dPolyline
 66
     1
 10
0.0
 20
0.0
 30
0.0
  0
VERTEX
  5
4A2
330
4A1
100
AcDbEntity
  8
\U+5716\U+5C64 1
 62
     2
370
    25
100
AcDbVertex
100
AcDb2dVertex
 10
118.7327104048311
 20
224.3218560983747
 30
0.0
  0
VERTEX
  5
4A3
330
4A1
100
AcDbEntity
  8
\U+5716\U+5C64 1
 62
     2
370
    25
100
AcDbVertex
100
AcDb2dVertex
 10
155.6984370928722
 20
224.3218560983747
 30
0.0
  0
SEQEND
  5
4A4
330
4A1
100
AcDbEntity
  8
\U+5716\U+5C64 1
370
    25
  0
ENDBLK
  5
4A0
330
49D
100
AcDbEntity
  8
0
100
AcDbBlockEnd
  0
BLOCK
  5
4A7
330
4A5
100
AcDbEntity
  8
0
100
AcDbBlockBegin
  2
block 149
 70
     0
 71
     0
 10
0.0
 20
0.0
 30
0.0
  3
block 149
  1

  0
POLYLINE
  5
4A9
330
4A5
100
AcDbEntity
  8
\U+5716\U+5C64 1
 62
     2
370
    25
100
AcDb2dPolyline
 66
     1
 10
0.0
 20
0.0
 30
0.0
  0
VERTEX
  5
4AA
330
4A9
100
AcDbEntity
  8
\U+5716\U+5C64 1
 62
     2
370
    25
100
AcDbVertex
100
AcDb2dVertex
 10
153.4649802163856
 20
239.2110518436214
 30
0.0
  0
VERTEX
  5
4AB
330
4A9
100
AcDbEntity
  8
\U+5716\U+5C64 1
 62
     2
370
    25
100
AcDbVertex
100
AcDb2dVertex
 10
153.4649802163856
 20
242.9333077162111
 30
0.0
  0
SEQEND
  5
4AC
330
4A9
100
AcDbEntity
  8
\U+5716\U+5C64 1
370
    25
  0
ENDBLK
  5
4A8
330
4A5
100
AcDbEntity
  8
0
100
AcDbBlockEnd
  0
BLOCK
  5
4AF
330
4AD
100
AcDbEntity
  8
0
100
AcDbBlockBegin
  2
block 150
 70
     0
 71
     0
 10
0.0
 20
0.0
 30
0.0
  3
block 150
  1

  0
POLYLINE
  5
4B1
330
4AD
100
AcDbEntity
  8
\U+5716\U+5C64 1
 62
     2
370
    25
100
AcDb2dPolyline
 66
     1
 10
0.0
 20
0.0
 30
0.0
  0
VERTEX
  5
4B2
330
4B1
100
AcDbEntity
  8
\U+5716\U+5C64 1
 62
     2
370
    25
100
AcDbVertex
100
AcDb2dVertex
 10
153.4649802163856
 20
220.599600225785
 30
0.0
  0
VERTEX
  5
4B3
330
4B1
100
AcDbEntity
  8
\U+5716\U+5C64 1
 62
     2
370
    25
100
AcDbVertex
100
AcDb2dVertex
 10
153.4649802163856
 20
204.3456290037218
 30
0.0
  0
SEQEND
  5
4B4
330
4B1
100
AcDbEntity
  8
\U+5716\U+5C64 1
370
    25
  0
ENDBLK
  5
4B0
330
4AD
100
AcDbEntity
  8
0
100
AcDbBlockEnd
  0
BLOCK
  5
4B7
330
4B5
100
AcDbEntity
  8
0
100
AcDbBlockBegin
  2
block 151
 70
     0
 71
     0
 10
0.0
 20
0.0
 30
0.0
  3
block 151
  1

  0
POLYLINE
  5
4B9
330
4B5
100
AcDbEntity
  8
\U+5716\U+5C64 1
 62
     2
370
    25
100
AcDb2dPolyline
 66
     1
 10
0.0
 20
0.0
 30
0.0
  0
VERTEX
  5
4BA
330
4B9
100
AcDbEntity
  8
\U+5716\U+5C64 1
 62
     2
370
    25
100
AcDbVertex
100
AcDb2dVertex
 10
153.4649802163856
 20
235.4887959710317
 30
0.0
  0
VERTEX
  5
4BB
330
4B9
100
AcDbEntity
  8
\U+5716\U+5C64 1
 62
     2
370
    25
100
AcDbVertex
100
AcDb2dVertex
 10
153.4649802163856
 20
224.3218560983747
 30
0.0
  0
SEQEND
  5
4BC
330
4B9
100
AcDbEntity
  8
\U+5716\U+5C64 1
370
    25
  0
ENDBLK
  5
4B8
330
4B5
100
AcDbEntity
  8
0
100
AcDbBlockEnd
  0
BLOCK
  5
4BF
330
4BD
100
AcDbEntity
  8
0
100
AcDbBlockBegin
  2
block 152
 70
     0
 71
     0
 10
0.0
 20
0.0
 30
0.0
  3
block 152
  1

  0
POLYLINE
  5
4C1
330
4BD
100
AcDbEntity
  8
\U+5716\U+5C64 1
370
     0
100
AcDb2dPolyline
 66
     1
 10
0.0
 20
0.0
 30
0.0
  0
VERTEX
  5
4C2
330
4C1
100
AcDbEntity
  8
\U+5716\U+5C64 1
370
     0
100
AcDbVertex
100
AcDb2dVertex
 10
152.8445181101767
 20
239.2110518436214
 30
0.0
  0
VERTEX
  5
4C3
330
4C1
100
AcDbEntity
  8
\U+5716\U+5C64 1
370
     0
100
AcDbVertex
100
AcDb2dVertex
 10
154.0854423225945
 20
239.2110518436214
 30
0.0
  0
VERTEX
  5
4C4
330
4C1
100
AcDbEntity
  8
\U+5716\U+5C64 1
370
     0
100
AcDbVertex
100
AcDb2dVertex
 10
153.4649802163856
 20
235.4887959710317
 30
0.0
  0
VERTEX
  5
4C5
330
4C1
100
AcDbEntity
  8
\U+5716\U+5C64 1
370
     0
100
AcDbVertex
100
AcDb2dVertex
 10
152.8445181101767
 20
239.2110518436214
 30
0.0
  0
SEQEND
  5
4C6
330
4C1
100
AcDbEntity
  8
\U+5716\U+5C64 1
370
     0
  0
HATCH
  5
4C7
330
4BD
100
AcDbEntity
  8
\U+5716\U+5C64 1
 62
     2
100
AcDbHatch
 10
0.0
 20
0.0
 30
0.0
210
0.0
220
0.0
230
1.0
  2
SOLID
 70
     1
 71
     0
 91
        1
 92
        1
 93
        3
 72
     1
 10
152.8445181101767
 20
239.2110518436214
 11
154.0854423225945
 21
239.2110518436214
 72
     1
 10
154.0854423225945
 20
239.2110518436214
 11
153.4649802163856
 21
235.4887959710317
 72
     1
 10
153.4649802163856
 20
235.4887959710317
 11
152.8445181101767
 21
239.2110518436214
 97
        0
 75
     2
 76
     1
 98
        0
  0
ENDBLK
  5
4C0
330
4BD
100
AcDbEntity
  8
0
100
AcDbBlockEnd
  0
BLOCK
  5
4CA
330
4C8
100
AcDbEntity
  8
0
100
AcDbBlockBegin
  2
block 153
 70
     0
 71
     0
 10
0.0
 20
0.0
 30
0.0
  3
block 153
  1

  0
POLYLINE
  5
4CC
330
4C8
100
AcDbEntity
  8
\U+5716\U+5C64 1
370
     0
100
AcDb2dPolyline
 66
     1
 10
0.0
 20
0.0
 30
0.0
  0
VERTEX
  5
4CD
330
4CC
100
AcDbEntity
  8
\U+5716\U+5C64 1
370
     0
100
AcDbVertex
100
AcDb2dVertex
 10
152.8445181101767
 20
220.599600225785
 30
0.0
  0
VERTEX
  5
4CE
330
4CC
100
AcDbEntity
  8
\U+5716\U+5C64 1
370
     0
100
AcDbVertex
100
AcDb2dVertex
 10
154.0854423225945
 20
220.599600225785
 30
0.0
  0
VERTEX
  5
4CF
330
4CC
100
AcDbEntity
  8
\U+5716\U+5C64 1
370
     0
100
AcDbVertex
100
AcDb2dVertex
 10
153.4649802163856
 20
224.3218560983747
 30
0.0
  0
VERTEX
  5
4D0
330
4CC
100
AcDbEntity
  8
\U+5716\U+5C64 1
370
     0
100
AcDbVertex
100
AcDb2dVertex
 10
152.8445181101767
 20
220.599600225785
 30
0.0
  0
SEQEND
  5
4D1
330
4CC
100
AcDbEntity
  8
\U+5716\U+5C64 1
370
     0
  0
HATCH
  5
4D2
330
4C8
100
AcDbEntity
  8
\U+5716\U+5C64 1
 62
     2
100
AcDbHatch
 10
0.0
 20
0.0
 30
0.0
210
0.0
220
0.0
230
1.0
  2
SOLID
 70
     1
 71
     0
 91
        1
 92
        1
 93
        3
 72
     1
 10
152.8445181101767
 20
220.599600225785
 11
154.0854423225945
 21
220.599600225785
 72
     1
 10
154.0854423225945
 20
220.599600225785
 11
153.4649802163856
 21
224.3218560983747
 72
     1
 10
153.4649802163856
 20
224.3218560983747
 11
152.8445181101767
 21
220.599600225785
 97
        0
 75
     2
 76
     1
 98
        0
  0
ENDBLK
  5
4CB
330
4C8
100
AcDbEntity
  8
0
100
AcDbBlockEnd
  0
BLOCK
  5
4D5
330
4D3
100
AcDbEntity
  8
0
100
AcDbBlockBegin
  2
block 154
 70
     0
 71
     0
 10
0.0
 20
0.0
 30
0.0
  3
block 154
  1

  0
MTEXT
  5
4D7
330
4D3
100
AcDbEntity
  8
\U+5716\U+5C64 1
 62
     2
100
AcDbMText
 10
151.2074076555933
 20
205.7625977115714
 30
0.0
 40
4.838984876044339
 41
0.0
 71
     7
 72
     1
  1
\fTxt|b0|i0|c0|p34;\W1;1.5
 11
-4.371139000186241E-8
 21
0.999999999999999
 31
0.0
 73
     1
 44
1.0
  0
ENDBLK
  5
4D6
330
4D3
100
AcDbEntity
  8
0
100
AcDbBlockEnd
  0
BLOCK
  5
4DA
330
4D8
100
AcDbEntity
  8
0
100
AcDbBlockBegin
  2
block 155
 70
     0
 71
     0
 10
0.0
 20
0.0
 30
0.0
  3
block 155
  1

  0
POLYLINE
  5
4DC
330
4D8
100
AcDbEntity
  8
\U+5716\U+5C64 1
370
     0
100
AcDb2dPolyline
 66
     1
 10
0.0
 20
0.0
 30
0.0
  0
VERTEX
  5
4DD
330
4DC
100
AcDbEntity
  8
\U+5716\U+5C64 1
370
     0
100
AcDbVertex
100
AcDb2dVertex
 10
144.4166032099871
 20
235.4887959710317
 30
0.0
  0
VERTEX
  5
4DE
330
4DC
100
AcDbEntity
  8
\U+5716\U+5C64 1
370
     0
100
AcDbVertex
100
AcDb2dVertex
 10
144.4166032099871
 20
235.4887959710317
 30
0.0
  0
SEQEND
  5
4DF
330
4DC
100
AcDbEntity
  8
\U+5716\U+5C64 1
370
     0
  0
ENDBLK
  5
4DB
330
4D8
100
AcDbEntity
  8
0
100
AcDbBlockEnd
  0
BLOCK
  5
4E2
330
4E0
100
AcDbEntity
  8
0
100
AcDbBlockBegin
  2
block 156
 70
     0
 71
     0
 10
0.0
 20
0.0
 30
0.0
  3
block 156
  1

  0
POLYLINE
  5
4E4
330
4E0
100
AcDbEntity
  8
\U+5716\U+5C64 1
370
     0
100
AcDb2dPolyline
 66
     1
 10
0.0
 20
0.0
 30
0.0
  0
VERTEX
  5
4E5
330
4E4
100
AcDbEntity
  8
\U+5716\U+5C64 1
370
     0
100
AcDbVertex
100
AcDb2dVertex
 10
116.4994257832325
 20
224.3218560983747
 30
0.0
  0
VERTEX
  5
4E6
330
4E4
100
AcDbEntity
  8
\U+5716\U+5C64 1
370
     0
100
AcDbVertex
100
AcDb2dVertex
 10
116.4994257832325
 20
224.3218560983747
 30
0.0
  0
SEQEND
  5
4E7
330
4E4
100
AcDbEntity
  8
\U+5716\U+5C64 1
370
     0
  0
ENDBLK
  5
4E3
330
4E0
100
AcDbEntity
  8
0
100
AcDbBlockEnd
  0
BLOCK
  5
4EA
330
4E8
100
AcDbEntity
  8
0
100
AcDbBlockBegin
  2
block 157
 70
     0
 71
     0
 10
0.0
 20
0.0
 30
0.0
  3
block 157
  1

  0
POLYLINE
  5
4EC
330
4E8
100
AcDbEntity
  8
\U+5716\U+5C64 1
370
     0
100
AcDb2dPolyline
 66
     1
 10
0.0
 20
0.0
 30
0.0
  0
VERTEX
  5
4ED
330
4EC
100
AcDbEntity
  8
\U+5716\U+5C64 1
370
     0
100
AcDbVertex
100
AcDb2dVertex
 10
153.4649802163856
 20
224.3218560983747
 30
0.0
  0
VERTEX
  5
4EE
330
4EC
100
AcDbEntity
  8
\U+5716\U+5C64 1
370
     0
100
AcDbVertex
100
AcDb2dVertex
 10
153.4649802163856
 20
224.3218560983747
 30
0.0
  0
SEQEND
  5
4EF
330
4EC
100
AcDbEntity
  8
\U+5716\U+5C64 1
370
     0
  0
ENDBLK
  5
4EB
330
4E8
100
AcDbEntity
  8
0
100
AcDbBlockEnd
  0
BLOCK
  5
4F2
330
4F0
100
AcDbEntity
  8
0
100
AcDbBlockBegin
  2
block 158
 70
     0
 71
     0
 10
0.0
 20
0.0
 30
0.0
  3
block 158
  1

  0
SPLINE
  5
4F4
330
4F0
100
AcDbEntity
  8
\U+5716\U+5C64 1
 62
     7
370
    25
100
AcDbSpline
210
0.0
220
0.0
230
1.0
 70
     8
 71
     3
 72
     8
 73
     4
 74
     0
 42
0.0000000001
 43
0.0000000001
 40
0.0
 40
0.0
 40
0.0
 40
0.0
 40
1.0
 40
1.0
 40
1.0
 40
1.0
 10
105.3119875789156
 20
236.2679048289948
 30
0.0
 10
105.0129530935245
 20
243.7783901962391
 30
0.0
 10
98.73288439053613
 20
250.0584588992275
 30
0.0
 10
91.22257127817966
 20
250.3574933846186
 30
0.0
  0
ENDBLK
  5
4F3
330
4F0
100
AcDbEntity
  8
0
100
AcDbBlockEnd
  0
BLOCK
  5
4F7
330
4F5
100
AcDbEntity
  8
0
100
AcDbBlockBegin
  2
block 159
 70
     0
 71
     0
 10
0.0
 20
0.0
 30
0.0
  3
block 159
  1

  0
POLYLINE
  5
4F9
330
4F5
100
AcDbEntity
  8
\U+5716\U+5C64 1
 62
     7
370
    25
100
AcDb2dPolyline
 66
     1
 10
0.0
 20
0.0
 30
0.0
  0
VERTEX
  5
4FA
330
4F9
100
AcDbEntity
  8
\U+5716\U+5C64 1
 62
     7
370
    25
100
AcDbVertex
100
AcDb2dVertex
 10
91.22257127817966
 20
250.3574933846186
 30
0.0
  0
VERTEX
  5
4FB
330
4F9
100
AcDbEntity
  8
\U+5716\U+5C64 1
 62
     7
370
    25
100
AcDbVertex
100
AcDb2dVertex
 10
87.81829792864981
 20
250.535949448481
 30
0.0
  0
SEQEND
  5
4FC
330
4F9
100
AcDbEntity
  8
\U+5716\U+5C64 1
370
    25
  0
ENDBLK
  5
4F8
330
4F5
100
AcDbEntity
  8
0
100
AcDbBlockEnd
  0
BLOCK
  5
4FF
330
4FD
100
AcDbEntity
  8
0
100
AcDbBlockBegin
  2
block 160
 70
     0
 71
     0
 10
0.0
 20
0.0
 30
0.0
  3
block 160
  1

  0
POLYLINE
  5
501
330
4FD
100
AcDbEntity
  8
\U+5716\U+5C64 1
 62
     7
370
    25
100
AcDb2dPolyline
 66
     1
 10
0.0
 20
0.0
 30
0.0
  0
VERTEX
  5
502
330
501
100
AcDbEntity
  8
\U+5716\U+5C64 1
 62
     7
370
    25
100
AcDbVertex
100
AcDb2dVertex
 10
105.3119875789156
 20
236.2679048289948
 30
0.0
  0
VERTEX
  5
503
330
501
100
AcDbEntity
  8
\U+5716\U+5C64 1
 62
     7
370
    25
100
AcDbVertex
100
AcDb2dVertex
 10
105.490443642778
 20
232.8638037343528
 30
0.0
  0
SEQEND
  5
504
330
501
100
AcDbEntity
  8
\U+5716\U+5C64 1
370
    25
  0
ENDBLK
  5
500
330
4FD
100
AcDbEntity
  8
0
100
AcDbBlockEnd
  0
BLOCK
  5
507
330
505
100
AcDbEntity
  8
0
100
AcDbBlockBegin
  2
block 161
 70
     0
 71
     0
 10
0.0
 20
0.0
 30
0.0
  3
block 161
  1

  0
POLYLINE
  5
509
330
505
100
AcDbEntity
  8
\U+5716\U+5C64 1
 62
     7
370
    25
100
AcDb2dPolyline
 66
     1
 10
0.0
 20
0.0
 30
0.0
  0
VERTEX
  5
50A
330
509
100
AcDbEntity
  8
\U+5716\U+5C64 1
 62
     7
370
    25
100
AcDbVertex
100
AcDb2dVertex
 10
91.22257127817966
 20
310.3211424108208
 30
0.0
  0
VERTEX
  5
50B
330
509
100
AcDbEntity
  8
\U+5716\U+5C64 1
 62
     7
370
    25
100
AcDbVertex
100
AcDb2dVertex
 10
87.81829792864981
 20
310.1426863469583
 30
0.0
  0
SEQEND
  5
50C
330
509
100
AcDbEntity
  8
\U+5716\U+5C64 1
370
    25
  0
ENDBLK
  5
508
330
505
100
AcDbEntity
  8
0
100
AcDbBlockEnd
  0
BLOCK
  5
50F
330
50D
100
AcDbEntity
  8
0
100
AcDbBlockBegin
  2
block 162
 70
     0
 71
     0
 10
0.0
 20
0.0
 30
0.0
  3
block 162
  1

  0
POLYLINE
  5
511
330
50D
100
AcDbEntity
  8
\U+5716\U+5C64 1
 62
     5
370
    25
100
AcDb2dPolyline
 66
     1
 10
0.0
 20
0.0
 30
0.0
  0
VERTEX
  5
512
330
511
100
AcDbEntity
  8
\U+5716\U+5C64 1
 62
     5
370
    25
100
AcDbVertex
100
AcDb2dVertex
 10
106.0766270262952
 20
325.0821805194713
 30
0.0
  0
VERTEX
  5
513
330
511
100
AcDbEntity
  8
\U+5716\U+5C64 1
 62
     5
370
    25
100
AcDbVertex
100
AcDb2dVertex
 10
105.7605393070022
 20
322.0608297857389
 30
0.0
  0
VERTEX
  5
514
330
511
100
AcDbEntity
  8
\U+5716\U+5C64 1
 62
     5
370
    25
100
AcDbVertex
100
AcDb2dVertex
 10
104.8661919290353
 20
319.1574736502167
 30
0.0
  0
VERTEX
  5
515
330
511
100
AcDbEntity
  8
\U+5716\U+5C64 1
 62
     5
370
    25
100
AcDbVertex
100
AcDb2dVertex
 10
103.4271745955347
 20
316.4820107313836
 30
0.0
  0
VERTEX
  5
516
330
511
100
AcDbEntity
  8
\U+5716\U+5C64 1
 62
     5
370
    25
100
AcDbVertex
100
AcDb2dVertex
 10
101.4979198510762
 20
314.1352101386601
 30
0.0
  0
VERTEX
  5
517
330
511
100
AcDbEntity
  8
\U+5716\U+5C64 1
 62
     5
370
    25
100
AcDbVertex
100
AcDb2dVertex
 10
99.15129151324058
 20
312.2059553942016
 30
0.0
  0
VERTEX
  5
518
330
511
100
AcDbEntity
  8
\U+5716\U+5C64 1
 62
     5
370
    25
100
AcDbVertex
100
AcDb2dVertex
 10
96.47565633951963
 20
310.766938060701
 30
0.0
  0
VERTEX
  5
519
330
511
100
AcDbEntity
  8
\U+5716\U+5C64 1
 62
     5
370
    25
100
AcDbVertex
100
AcDb2dVertex
 10
93.57247245888531
 20
309.8725906827341
 30
0.0
  0
VERTEX
  5
51A
330
511
100
AcDbEntity
  8
\U+5716\U+5C64 1
 62
     5
370
    25
100
AcDbVertex
100
AcDb2dVertex
 10
90.55094947026502
 20
309.556675218329
 30
0.0
  0
SEQEND
  5
51B
330
511
100
AcDbEntity
  8
\U+5716\U+5C64 1
370
    25
  0
POLYLINE
  5
51C
330
50D
100
AcDbEntity
  8
\U+5716\U+5C64 1
 62
     5
370
    25
100
AcDb2dPolyline
 66
     1
 10
0.0
 20
0.0
 30
0.0
  0
VERTEX
  5
51D
330
51C
100
AcDbEntity
  8
\U+5716\U+5C64 1
 62
     5
370
    25
100
AcDbVertex
100
AcDb2dVertex
 10
90.55094947026502
 20
309.556675218329
 30
0.0
  0
VERTEX
  5
51E
330
51C
100
AcDbEntity
  8
\U+5716\U+5C64 1
 62
     5
370
    25
100
AcDbVertex
100
AcDb2dVertex
 10
89.97045049804848
 20
309.4953524782374
 30
0.0
  0
VERTEX
  5
51F
330
51C
100
AcDbEntity
  8
\U+5716\U+5C64 1
 62
     5
370
    25
100
AcDbVertex
100
AcDb2dVertex
 10
89.41303368081027
 20
309.3220640610119
 30
0.0
  0
VERTEX
  5
520
330
51C
100
AcDbEntity
  8
\U+5716\U+5C64 1
 62
     5
370
    25
100
AcDbVertex
100
AcDb2dVertex
 10
88.90005862464977
 20
309.0433556523927
 30
0.0
  0
VERTEX
  5
521
330
51C
100
AcDbEntity
  8
\U+5716\U+5C64 1
 62
     5
370
    25
100
AcDbVertex
100
AcDb2dVertex
 10
88.45133464167527
 20
308.6699070554297
 30
0.0
  0
VERTEX
  5
522
330
51C
100
AcDbEntity
  8
\U+5716\U+5C64 1
 62
     5
370
    25
100
AcDbVertex
100
AcDb2dVertex
 10
88.08408722067655
 20
308.2161876807061
 30
0.0
  0
VERTEX
  5
523
330
51C
100
AcDbEntity
  8
\U+5716\U+5C64 1
 62
     5
370
    25
100
AcDbVertex
100
AcDb2dVertex
 10
87.81244126246128
 20
307.6994230170119
 30
0.0
  0
VERTEX
  5
524
330
51C
100
AcDbEntity
  8
\U+5716\U+5C64 1
 62
     5
370
    25
100
AcDbVertex
100
AcDb2dVertex
 10
87.64690431519121
 20
307.139766886231
 30
0.0
  0
VERTEX
  5
525
330
51C
100
AcDbEntity
  8
\U+5716\U+5C64 1
 62
     5
370
    25
100
AcDbVertex
100
AcDb2dVertex
 10
87.5936775548307
 20
306.558406639575
 30
0.0
  0
VERTEX
  5
526
330
51C
100
AcDbEntity
  8
\U+5716\U+5C64 1
 62
     5
370
    25
100
AcDbVertex
100
AcDb2dVertex
 10
87.65482804003453
 20
305.9777354124706
 30
0.0
  0
VERTEX
  5
527
330
51C
100
AcDbEntity
  8
\U+5716\U+5C64 1
 62
     5
370
    25
100
AcDbVertex
100
AcDb2dVertex
 10
87.8282887121479
 20
305.4203185952323
 30
0.0
  0
VERTEX
  5
528
330
51C
100
AcDbEntity
  8
\U+5716\U+5C64 1
 62
     5
370
    25
100
AcDbVertex
100
AcDb2dVertex
 10
88.10699712076699
 20
304.9075157939598
 30
0.0
  0
VERTEX
  5
529
330
51C
100
AcDbEntity
  8
\U+5716\U+5C64 1
 62
     5
370
    25
100
AcDbVertex
100
AcDb2dVertex
 10
88.48044571773005
 20
304.4587918109852
 30
0.0
  0
VERTEX
  5
52A
330
51C
100
AcDbEntity
  8
\U+5716\U+5C64 1
 62
     5
370
    25
100
AcDbVertex
100
AcDb2dVertex
 10
88.9341650924536
 20
304.0915443899865
 30
0.0
  0
VERTEX
  5
52B
330
51C
100
AcDbEntity
  8
\U+5716\U+5C64 1
 62
     5
370
    25
100
AcDbVertex
100
AcDb2dVertex
 10
89.45092975614786
 20
303.8198984317713
 30
0.0
  0
VERTEX
  5
52C
330
51C
100
AcDbEntity
  8
\U+5716\U+5C64 1
 62
     5
370
    25
100
AcDbVertex
100
AcDb2dVertex
 10
90.01058588692872
 20
303.6543614845012
 30
0.0
  0
VERTEX
  5
52D
330
51C
100
AcDbEntity
  8
\U+5716\U+5C64 1
 62
     5
370
    25
100
AcDbVertex
100
AcDb2dVertex
 10
90.59194613358477
 20
303.6011347241406
 30
0.0
  0
SEQEND
  5
52E
330
51C
100
AcDbEntity
  8
\U+5716\U+5C64 1
370
    25
  0
POLYLINE
  5
52F
330
50D
100
AcDbEntity
  8
\U+5716\U+5C64 1
 62
     5
370
    25
100
AcDb2dPolyline
 66
     1
 10
0.0
 20
0.0
 30
0.0
  0
VERTEX
  5
530
330
52F
100
AcDbEntity
  8
\U+5716\U+5C64 1
 62
     5
370
    25
100
AcDbVertex
100
AcDb2dVertex
 10
90.59194613358477
 20
303.6011347241406
 30
0.0
  0
VERTEX
  5
531
330
52F
100
AcDbEntity
  8
\U+5716\U+5C64 1
 62
     5
370
    25
100
AcDbVertex
100
AcDb2dVertex
 10
94.76447628314007
 20
304.0374563551865
 30
0.0
  0
VERTEX
  5
532
330
52F
100
AcDbEntity
  8
\U+5716\U+5C64 1
 62
     5
370
    25
100
AcDbVertex
100
AcDb2dVertex
 10
98.77370879896797
 20
305.2725239014158
 30
0.0
  0
VERTEX
  5
533
330
52F
100
AcDbEntity
  8
\U+5716\U+5C64 1
 62
     5
370
    25
100
AcDbVertex
100
AcDb2dVertex
 10
102.4685761443819
 20
307.2596562882081
 30
0.0
  0
VERTEX
  5
534
330
52F
100
AcDbEntity
  8
\U+5716\U+5C64 1
 62
     5
370
    25
100
AcDbVertex
100
AcDb2dVertex
 10
105.7092073504085
 20
309.9239226393278
 30
0.0
  0
VERTEX
  5
535
330
52F
100
AcDbEntity
  8
\U+5716\U+5C64 1
 62
     5
370
    25
100
AcDbVertex
100
AcDb2dVertex
 10
108.3734737015282
 20
313.1645538453544
 30
0.0
  0
VERTEX
  5
536
330
52F
100
AcDbEntity
  8
\U+5716\U+5C64 1
 62
     5
370
    25
100
AcDbVertex
100
AcDb2dVertex
 10
110.3606060883205
 20
316.8594211907683
 30
0.0
  0
VERTEX
  5
537
330
52F
100
AcDbEntity
  8
\U+5716\U+5C64 1
 62
     5
370
    25
100
AcDbVertex
100
AcDb2dVertex
 10
111.5956736345498
 20
320.8686537065963
 30
0.0
  0
VERTEX
  5
538
330
52F
100
AcDbEntity
  8
\U+5716\U+5C64 1
 62
     5
370
    25
100
AcDbVertex
100
AcDb2dVertex
 10
112.0321675204835
 20
325.0411838561516
 30
0.0
  0
SEQEND
  5
539
330
52F
100
AcDbEntity
  8
\U+5716\U+5C64 1
370
    25
  0
POLYLINE
  5
53A
330
50D
100
AcDbEntity
  8
\U+5716\U+5C64 1
 62
     5
370
    25
100
AcDb2dPolyline
 66
     1
 10
0.0
 20
0.0
 30
0.0
  0
VERTEX
  5
53B
330
53A
100
AcDbEntity
  8
\U+5716\U+5C64 1
 62
     5
370
    25
100
AcDbVertex
100
AcDb2dVertex
 10
112.0321675204835
 20
325.0411838561516
 30
0.0
  0
VERTEX
  5
53C
330
53A
100
AcDbEntity
  8
\U+5716\U+5C64 1
 62
     5
370
    25
100
AcDbVertex
100
AcDb2dVertex
 10
111.978940760123
 20
325.6225441028076
 30
0.0
  0
VERTEX
  5
53D
330
53A
100
AcDbEntity
  8
\U+5716\U+5C64 1
 62
     5
370
    25
100
AcDbVertex
100
AcDb2dVertex
 10
111.8132315579651
 20
326.1823724884763
 30
0.0
  0
VERTEX
  5
53E
330
53A
100
AcDbEntity
  8
\U+5716\U+5C64 1
 62
     5
370
    25
100
AcDbVertex
100
AcDb2dVertex
 10
111.5415855997498
 20
326.6989648972827
 30
0.0
  0
VERTEX
  5
53F
330
53A
100
AcDbEntity
  8
\U+5716\U+5C64 1
 62
     5
370
    25
100
AcDbVertex
100
AcDb2dVertex
 10
111.174510433639
 20
327.1528565268941
 30
0.0
  0
VERTEX
  5
540
330
53A
100
AcDbEntity
  8
\U+5716\U+5C64 1
 62
     5
370
    25
100
AcDbVertex
100
AcDb2dVertex
 10
110.7257864506645
 20
327.5263051238572
 30
0.0
  0
VERTEX
  5
541
330
53A
100
AcDbEntity
  8
\U+5716\U+5C64 1
 62
     5
370
    25
100
AcDbVertex
100
AcDb2dVertex
 10
110.212811394504
 20
327.8050135324763
 30
0.0
  0
VERTEX
  5
542
330
53A
100
AcDbEntity
  8
\U+5716\U+5C64 1
 62
     5
370
    25
100
AcDbVertex
100
AcDb2dVertex
 10
109.6553945772658
 20
327.9783019497018
 30
0.0
  0
VERTEX
  5
543
330
53A
100
AcDbEntity
  8
\U+5716\U+5C64 1
 62
     5
370
    25
100
AcDbVertex
100
AcDb2dVertex
 10
109.0748956050492
 20
328.0394524349056
 30
0.0
  0
VERTEX
  5
544
330
53A
100
AcDbEntity
  8
\U+5716\U+5C64 1
 62
     5
370
    25
100
AcDbVertex
100
AcDb2dVertex
 10
108.4935353583932
 20
327.9862256745451
 30
0.0
  0
VERTEX
  5
545
330
53A
100
AcDbEntity
  8
\U+5716\U+5C64 1
 62
     5
370
    25
100
AcDbVertex
100
AcDb2dVertex
 10
107.9337069727244
 20
327.820688727275
 30
0.0
  0
VERTEX
  5
546
330
53A
100
AcDbEntity
  8
\U+5716\U+5C64 1
 62
     5
370
    25
100
AcDbVertex
100
AcDb2dVertex
 10
107.4169423090302
 20
327.5490427690598
 30
0.0
  0
VERTEX
  5
547
330
53A
100
AcDbEntity
  8
\U+5716\U+5C64 1
 62
     5
370
    25
100
AcDbVertex
100
AcDb2dVertex
 10
106.9632229343066
 20
327.181795348061
 30
0.0
  0
VERTEX
  5
548
330
53A
100
AcDbEntity
  8
\U+5716\U+5C64 1
 62
     5
370
    25
100
AcDbVertex
100
AcDb2dVertex
 10
106.5897743373436
 20
326.7330713650865
 30
0.0
  0
VERTEX
  5
549
330
53A
100
AcDbEntity
  8
\U+5716\U+5C64 1
 62
     5
370
    25
100
AcDbVertex
100
AcDb2dVertex
 10
106.3110659287245
 20
326.2202685638139
 30
0.0
  0
VERTEX
  5
54A
330
53A
100
AcDbEntity
  8
\U+5716\U+5C64 1
 62
     5
370
    25
100
AcDbVertex
100
AcDb2dVertex
 10
106.137777511499
 20
325.6626794916878
 30
0.0
  0
VERTEX
  5
54B
330
53A
100
AcDbEntity
  8
\U+5716\U+5C64 1
 62
     5
370
    25
100
AcDbVertex
100
AcDb2dVertex
 10
106.0766270262952
 20
325.0821805194713
 30
0.0
  0
SEQEND
  5
54C
330
53A
100
AcDbEntity
  8
\U+5716\U+5C64 1
370
    25
  0
ENDBLK
  5
510
330
50D
100
AcDbEntity
  8
0
100
AcDbBlockEnd
  0
BLOCK
  5
54F
330
54D
100
AcDbEntity
  8
0
100
AcDbBlockBegin
  2
block 163
 70
     0
 71
     0
 10
0.0
 20
0.0
 30
0.0
  3
block 163
  1

  0
POLYLINE
  5
551
330
54D
100
AcDbEntity
  8
\U+5716\U+5C64 1
 62
     7
370
    25
100
AcDb2dPolyline
 66
     1
 10
0.0
 20
0.0
 30
0.0
  0
VERTEX
  5
552
330
551
100
AcDbEntity
  8
\U+5716\U+5C64 1
 62
     7
370
    25
100
AcDbVertex
100
AcDb2dVertex
 10
127.6866917326614
 20
324.4107309664445
 30
0.0
  0
VERTEX
  5
553
330
551
100
AcDbEntity
  8
\U+5716\U+5C64 1
 62
     7
370
    25
100
AcDbVertex
100
AcDb2dVertex
 10
127.508235668799
 20
327.8148320610865
 30
0.0
  0
SEQEND
  5
554
330
551
100
AcDbEntity
  8
\U+5716\U+5C64 1
370
    25
  0
ENDBLK
  5
550
330
54D
100
AcDbEntity
  8
0
100
AcDbBlockEnd
  0
BLOCK
  5
557
330
555
100
AcDbEntity
  8
0
100
AcDbBlockBegin
  2
block 164
 70
     0
 71
     0
 10
0.0
 20
0.0
 30
0.0
  3
block 164
  1

  0
SPLINE
  5
559
330
555
100
AcDbEntity
  8
\U+5716\U+5C64 1
 62
     7
370
    25
100
AcDbSpline
210
0.0
220
0.0
230
1.0
 70
     8
 71
     3
 72
     8
 73
     4
 74
     0
 42
0.0000000001
 43
0.0000000001
 40
0.0
 40
0.0
 40
0.0
 40
0.0
 40
1.0
 40
1.0
 40
1.0
 40
1.0
 10
127.6866917326614
 20
324.4107309664445
 30
0.0
 10
127.9857262180525
 20
316.9002455992002
 30
0.0
 10
134.2657949210409
 20
310.6201768962118
 30
0.0
 10
141.7761080333974
 20
310.3211424108208
 30
0.0
  0
ENDBLK
  5
558
330
555
100
AcDbEntity
  8
0
100
AcDbBlockEnd
  0
BLOCK
  5
55C
330
55A
100
AcDbEntity
  8
0
100
AcDbBlockBegin
  2
block 165
 70
     0
 71
     0
 10
0.0
 20
0.0
 30
0.0
  3
block 165
  1

  0
POLYLINE
  5
55E
330
55A
100
AcDbEntity
  8
\U+5716\U+5C64 1
 62
     7
370
    25
100
AcDb2dPolyline
 66
     1
 10
0.0
 20
0.0
 30
0.0
  0
VERTEX
  5
55F
330
55E
100
AcDbEntity
  8
\U+5716\U+5C64 1
 62
     7
370
    25
100
AcDbVertex
100
AcDb2dVertex
 10
141.7761080333974
 20
310.3211424108208
 30
0.0
  0
VERTEX
  5
560
330
55E
100
AcDbEntity
  8
\U+5716\U+5C64 1
 62
     7
370
    25
100
AcDbVertex
100
AcDb2dVertex
 10
145.1803813829272
 20
310.1426863469583
 30
0.0
  0
SEQEND
  5
561
330
55E
100
AcDbEntity
  8
\U+5716\U+5C64 1
370
    25
  0
ENDBLK
  5
55D
330
55A
100
AcDbEntity
  8
0
100
AcDbBlockEnd
  0
BLOCK
  5
564
330
562
100
AcDbEntity
  8
0
100
AcDbBlockBegin
  2
block 166
 70
     0
 71
     0
 10
0.0
 20
0.0
 30
0.0
  3
block 166
  1

  0
POLYLINE
  5
566
330
562
100
AcDbEntity
  8
\U+5716\U+5C64 1
 62
     7
370
    25
100
AcDb2dPolyline
 66
     1
 10
0.0
 20
0.0
 30
0.0
  0
VERTEX
  5
567
330
566
100
AcDbEntity
  8
\U+5716\U+5C64 1
 62
     7
370
    25
100
AcDbVertex
100
AcDb2dVertex
 10
105.3119875789156
 20
324.4107309664445
 30
0.0
  0
VERTEX
  5
568
330
566
100
AcDbEntity
  8
\U+5716\U+5C64 1
 62
     7
370
    25
100
AcDbVertex
100
AcDb2dVertex
 10
105.490443642778
 20
327.8148320610865
 30
0.0
  0
SEQEND
  5
569
330
566
100
AcDbEntity
  8
\U+5716\U+5C64 1
370
    25
  0
ENDBLK
  5
565
330
562
100
AcDbEntity
  8
0
100
AcDbBlockEnd
  0
BLOCK
  5
56C
330
56A
100
AcDbEntity
  8
0
100
AcDbBlockBegin
  2
block 167
 70
     0
 71
     0
 10
0.0
 20
0.0
 30
0.0
  3
block 167
  1

  0
SPLINE
  5
56E
330
56A
100
AcDbEntity
  8
\U+5716\U+5C64 1
 62
     7
370
    25
100
AcDbSpline
210
0.0
220
0.0
230
1.0
 70
     8
 71
     3
 72
     8
 73
     4
 74
     0
 42
0.0000000001
 43
0.0000000001
 40
0.0
 40
0.0
 40
0.0
 40
0.0
 40
1.0
 40
1.0
 40
1.0
 40
1.0
 10
91.22257127817966
 20
310.3211424108208
 30
0.0
 10
98.73288439053613
 20
310.6201768962118
 30
0.0
 10
105.0129530935245
 20
316.9002455992002
 30
0.0
 10
105.3119875789156
 20
324.4107309664445
 30
0.0
  0
ENDBLK
  5
56D
330
56A
100
AcDbEntity
  8
0
100
AcDbBlockEnd
  0
BLOCK
  5
571
330
56F
100
AcDbEntity
  8
0
100
AcDbBlockBegin
  2
block 168
 70
     0
 71
     0
 10
0.0
 20
0.0
 30
0.0
  3
block 168
  1

  0
INSERT
  5
574
330
56F
100
AcDbEntity
  8
\U+5716\U+5C64 1
100
AcDbBlockReference
  2
block 169
 10
0.0
 20
0.0
 30
0.0
  0
ENDBLK
  5
572
330
56F
100
AcDbEntity
  8
0
100
AcDbBlockEnd
  0
BLOCK
  5
575
330
573
100
AcDbEntity
  8
0
100
AcDbBlockBegin
  2
block 169
 70
     0
 71
     0
 10
0.0
 20
0.0
 30
0.0
  3
block 169
  1

  0
INSERT
  5
578
330
573
100
AcDbEntity
  8
\U+5716\U+5C64 1
100
AcDbBlockReference
  2
block 170
 10
0.0
 20
0.0
 30
0.0
  0
INSERT
  5
580
330
573
100
AcDbEntity
  8
\U+5716\U+5C64 1
100
AcDbBlockReference
  2
block 171
 10
0.0
 20
0.0
 30
0.0
  0
INSERT
  5
585
330
573
100
AcDbEntity
  8
\U+5716\U+5C64 1
100
AcDbBlockReference
  2
block 172
 10
0.0
 20
0.0
 30
0.0
  0
INSERT
  5
590
330
573
100
AcDbEntity
  8
\U+5716\U+5C64 1
100
AcDbBlockReference
  2
block 173
 10
0.0
 20
0.0
 30
0.0
  0
INSERT
  5
598
330
573
100
AcDbEntity
  8
\U+5716\U+5C64 1
100
AcDbBlockReference
  2
block 174
 10
0.0
 20
0.0
 30
0.0
  0
ENDBLK
  5
576
330
573
100
AcDbEntity
  8
0
100
AcDbBlockEnd
  0
BLOCK
  5
579
330
577
100
AcDbEntity
  8
0
100
AcDbBlockBegin
  2
block 170
 70
     0
 71
     0
 10
0.0
 20
0.0
 30
0.0
  3
block 170
  1

  0
POLYLINE
  5
57B
330
577
100
AcDbEntity
  8
\U+5716\U+5C64 1
 62
     2
370
    25
100
AcDb2dPolyline
 66
     1
 10
0.0
 20
0.0
 30
0.0
  0
VERTEX
  5
57C
330
57B
100
AcDbEntity
  8
\U+5716\U+5C64 1
 62
     2
370
    25
100
AcDbVertex
100
AcDb2dVertex
 10
94.13609045208786
 20
322.506797690507
 30
0.0
  0
VERTEX
  5
57D
330
57B
100
AcDbEntity
  8
\U+5716\U+5C64 1
 62
     2
370
    25
100
AcDbVertex
100
AcDb2dVertex
 10
102.488729966266
 20
316.4380857349696
 30
0.0
  0
SEQEND
  5
57E
330
57B
100
AcDbEntity
  8
\U+5716\U+5C64 1
370
    25
  0
ENDBLK
  5
57A
330
577
100
AcDbEntity
  8
0
100
AcDbBlockEnd
  0
BLOCK
  5
581
330
57F
100
AcDbEntity
  8
0
100
AcDbBlockBegin
  2
block 171
 70
     0
 71
     0
 10
0.0
 20
0.0
 30
0.0
  3
block 171
  1

  0
MTEXT
  5
583
330
57F
100
AcDbEntity
  8
\U+5716\U+5C64 1
 62
     2
100
AcDbMText
 10
83.74446982986011
 20
327.0963569236636
 30
0.0
 40
4.838984876044339
 41
0.0
 71
     7
 72
     1
  1
\fTxt|b0|i0|c0|p34;\W1;R2
 11
0.8090048946115713
 21
-0.5878019058275674
 31
0.0
 73
     1
 44
1.0
  0
ENDBLK
  5
582
330
57F
100
AcDbEntity
  8
0
100
AcDbBlockEnd
  0
BLOCK
  5
586
330
584
100
AcDbEntity
  8
0
100
AcDbBlockBegin
  2
block 172
 70
     0
 71
     0
 10
0.0
 20
0.0
 30
0.0
  3
block 172
  1

  0
POLYLINE
  5
588
330
584
100
AcDbEntity
  8
\U+5716\U+5C64 1
370
     0
100
AcDb2dPolyline
 66
     1
 10
0.0
 20
0.0
 30
0.0
  0
VERTEX
  5
589
330
588
100
AcDbEntity
  8
\U+5716\U+5C64 1
370
     0
100
AcDbVertex
100
AcDb2dVertex
 10
99.84203361371189
 20
319.1278458094982
 30
0.0
  0
VERTEX
  5
58A
330
588
100
AcDbEntity
  8
\U+5716\U+5C64 1
370
     0
100
AcDbVertex
100
AcDb2dVertex
 10
99.11270641835141
 20
318.1241165777161
 30
0.0
  0
VERTEX
  5
58B
330
588
100
AcDbEntity
  8
\U+5716\U+5C64 1
370
     0
100
AcDbVertex
100
AcDb2dVertex
 10
102.488729966266
 20
316.4380857349696
 30
0.0
  0
VERTEX
  5
58C
330
588
100
AcDbEntity
  8
\U+5716\U+5C64 1
370
     0
100
AcDbVertex
100
AcDb2dVertex
 10
99.84203361371189
 20
319.1278458094982
 30
0.0
  0
SEQEND
  5
58D
330
588
100
AcDbEntity
  8
\U+5716\U+5C64 1
370
     0
  0
HATCH
  5
58E
330
584
100
AcDbEntity
  8
\U+5716\U+5C64 1
 62
     2
100
AcDbHatch
 10
0.0
 20
0.0
 30
0.0
210
0.0
220
0.0
230
1.0
  2
SOLID
 70
     1
 71
     0
 91
        1
 92
        1
 93
        3
 72
     1
 10
99.84203361371189
 20
319.1278458094982
 11
99.11270641835141
 21
318.1241165777161
 72
     1
 10
99.11270641835141
 20
318.1241165777161
 11
102.488729966266
 21
316.4380857349696
 72
     1
 10
102.488729966266
 20
316.4380857349696
 11
99.84203361371189
 21
319.1278458094982
 97
        0
 75
     2
 76
     1
 98
        0
  0
ENDBLK
  5
587
330
584
100
AcDbEntity
  8
0
100
AcDbBlockEnd
  0
BLOCK
  5
591
330
58F
100
AcDbEntity
  8
0
100
AcDbBlockBegin
  2
block 173
 70
     0
 71
     0
 10
0.0
 20
0.0
 30
0.0
  3
block 173
  1

  0
POLYLINE
  5
593
330
58F
100
AcDbEntity
  8
\U+5716\U+5C64 1
370
     0
100
AcDb2dPolyline
 66
     1
 10
0.0
 20
0.0
 30
0.0
  0
VERTEX
  5
594
330
593
100
AcDbEntity
  8
\U+5716\U+5C64 1
370
     0
100
AcDbVertex
100
AcDb2dVertex
 10
102.488729966266
 20
316.4380857349696
 30
0.0
  0
VERTEX
  5
595
330
593
100
AcDbEntity
  8
\U+5716\U+5C64 1
370
     0
100
AcDbVertex
100
AcDb2dVertex
 10
102.488729966266
 20
316.4380857349696
 30
0.0
  0
SEQEND
  5
596
330
593
100
AcDbEntity
  8
\U+5716\U+5C64 1
370
     0
  0
ENDBLK
  5
592
330
58F
100
AcDbEntity
  8
0
100
AcDbBlockEnd
  0
BLOCK
  5
599
330
597
100
AcDbEntity
  8
0
100
AcDbBlockBegin
  2
block 174
 70
     0
 71
     0
 10
0.0
 20
0.0
 30
0.0
  3
block 174
  1

  0
POLYLINE
  5
59B
330
597
100
AcDbEntity
  8
\U+5716\U+5C64 1
370
     0
100
AcDb2dPolyline
 66
     1
 10
0.0
 20
0.0
 30
0.0
  0
VERTEX
  5
59C
330
59B
100
AcDbEntity
  8
\U+5716\U+5C64 1
370
     0
100
AcDbVertex
100
AcDb2dVertex
 10
90.44329016532872
 20
325.1898398244076
 30
0.0
  0
VERTEX
  5
59D
330
59B
100
AcDbEntity
  8
\U+5716\U+5C64 1
370
     0
100
AcDbVertex
100
AcDb2dVertex
 10
90.44329016532872
 20
325.1898398244076
 30
0.0
  0
SEQEND
  5
59E
330
59B
100
AcDbEntity
  8
\U+5716\U+5C64 1
370
     0
  0
ENDBLK
  5
59A
330
597
100
AcDbEntity
  8
0
100
AcDbBlockEnd
  0
BLOCK
  5
5A1
330
59F
100
AcDbEntity
  8
0
100
AcDbBlockBegin
  2
block 175
 70
     0
 71
     0
 10
0.0
 20
0.0
 30
0.0
  3
block 175
  1

  0
INSERT
  5
5A4
330
59F
100
AcDbEntity
  8
\U+5716\U+5C64 1
100
AcDbBlockReference
  2
block 176
 10
0.0
 20
0.0
 30
0.0
  0
ENDBLK
  5
5A2
330
59F
100
AcDbEntity
  8
0
100
AcDbBlockEnd
  0
BLOCK
  5
5A5
330
5A3
100
AcDbEntity
  8
0
100
AcDbBlockBegin
  2
block 176
 70
     0
 71
     0
 10
0.0
 20
0.0
 30
0.0
  3
block 176
  1

  0
INSERT
  5
5A8
330
5A3
100
AcDbEntity
  8
\U+5716\U+5C64 1
100
AcDbBlockReference
  2
block 177
 10
0.0
 20
0.0
 30
0.0
  0
INSERT
  5
5B0
330
5A3
100
AcDbEntity
  8
\U+5716\U+5C64 1
100
AcDbBlockReference
  2
block 178
 10
0.0
 20
0.0
 30
0.0
  0
INSERT
  5
5B8
330
5A3
100
AcDbEntity
  8
\U+5716\U+5C64 1
100
AcDbBlockReference
  2
block 179
 10
0.0
 20
0.0
 30
0.0
  0
INSERT
  5
5C0
330
5A3
100
AcDbEntity
  8
\U+5716\U+5C64 1
100
AcDbBlockReference
  2
block 180
 10
0.0
 20
0.0
 30
0.0
  0
INSERT
  5
5C8
330
5A3
100
AcDbEntity
  8
\U+5716\U+5C64 1
100
AcDbBlockReference
  2
block 181
 10
0.0
 20
0.0
 30
0.0
  0
INSERT
  5
5D0
330
5A3
100
AcDbEntity
  8
\U+5716\U+5C64 1
100
AcDbBlockReference
  2
block 182
 10
0.0
 20
0.0
 30
0.0
  0
INSERT
  5
5DB
330
5A3
100
AcDbEntity
  8
\U+5716\U+5C64 1
100
AcDbBlockReference
  2
block 183
 10
0.0
 20
0.0
 30
0.0
  0
INSERT
  5
5E6
330
5A3
100
AcDbEntity
  8
\U+5716\U+5C64 1
100
AcDbBlockReference
  2
block 184
 10
0.0
 20
0.0
 30
0.0
  0
INSERT
  5
5EB
330
5A3
100
AcDbEntity
  8
\U+5716\U+5C64 1
100
AcDbBlockReference
  2
block 185
 10
0.0
 20
0.0
 30
0.0
  0
INSERT
  5
5F3
330
5A3
100
AcDbEntity
  8
\U+5716\U+5C64 1
100
AcDbBlockReference
  2
block 186
 10
0.0
 20
0.0
 30
0.0
  0
INSERT
  5
5FB
330
5A3
100
AcDbEntity
  8
\U+5716\U+5C64 1
100
AcDbBlockReference
  2
block 187
 10
0.0
 20
0.0
 30
0.0
  0
ENDBLK
  5
5A6
330
5A3
100
AcDbEntity
  8
0
100
AcDbBlockEnd
  0
BLOCK
  5
5A9
330
5A7
100
AcDbEntity
  8
0
100
AcDbBlockBegin
  2
block 177
 70
     0
 71
     0
 10
0.0
 20
0.0
 30
0.0
  3
block 177
  1

  0
POLYLINE
  5
5AB
330
5A7
100
AcDbEntity
  8
\U+5716\U+5C64 1
 62
     2
370
    25
100
AcDb2dPolyline
 66
     1
 10
0.0
 20
0.0
 30
0.0
  0
VERTEX
  5
5AC
330
5AB
100
AcDbEntity
  8
\U+5716\U+5C64 1
 62
     2
370
    25
100
AcDbVertex
100
AcDb2dVertex
 10
114.6382117194937
 20
218.3661433492984
 30
0.0
  0
VERTEX
  5
5AD
330
5AB
100
AcDbEntity
  8
\U+5716\U+5C64 1
 62
     2
370
    25
100
AcDbVertex
100
AcDb2dVertex
 10
114.6382117194937
 20
202.0456817405065
 30
0.0
  0
SEQEND
  5
5AE
330
5AB
100
AcDbEntity
  8
\U+5716\U+5C64 1
370
    25
  0
ENDBLK
  5
5AA
330
5A7
100
AcDbEntity
  8
0
100
AcDbBlockEnd
  0
BLOCK
  5
5B1
330
5AF
100
AcDbEntity
  8
0
100
AcDbBlockBegin
  2
block 178
 70
     0
 71
     0
 10
0.0
 20
0.0
 30
0.0
  3
block 178
  1

  0
POLYLINE
  5
5B3
330
5AF
100
AcDbEntity
  8
\U+5716\U+5C64 1
 62
     2
370
    25
100
AcDb2dPolyline
 66
     1
 10
0.0
 20
0.0
 30
0.0
  0
VERTEX
  5
5B4
330
5B3
100
AcDbEntity
  8
\U+5716\U+5C64 1
 62
     2
370
    25
100
AcDbVertex
100
AcDb2dVertex
 10
116.4994257832325
 20
218.3661433492984
 30
0.0
  0
VERTEX
  5
5B5
330
5B3
100
AcDbEntity
  8
\U+5716\U+5C64 1
 62
     2
370
    25
100
AcDbVertex
100
AcDb2dVertex
 10
116.4994257832325
 20
202.0456817405065
 30
0.0
  0
SEQEND
  5
5B6
330
5B3
100
AcDbEntity
  8
\U+5716\U+5C64 1
370
    25
  0
ENDBLK
  5
5B2
330
5AF
100
AcDbEntity
  8
0
100
AcDbBlockEnd
  0
BLOCK
  5
5B9
330
5B7
100
AcDbEntity
  8
0
100
AcDbBlockBegin
  2
block 179
 70
     0
 71
     0
 10
0.0
 20
0.0
 30
0.0
  3
block 179
  1

  0
POLYLINE
  5
5BB
330
5B7
100
AcDbEntity
  8
\U+5716\U+5C64 1
 62
     2
370
    25
100
AcDb2dPolyline
 66
     1
 10
0.0
 20
0.0
 30
0.0
  0
VERTEX
  5
5BC
330
5BB
100
AcDbEntity
  8
\U+5716\U+5C64 1
 62
     2
370
    25
100
AcDbVertex
100
AcDb2dVertex
 10
110.915955846904
 20
204.2791386169931
 30
0.0
  0
VERTEX
  5
5BD
330
5BB
100
AcDbEntity
  8
\U+5716\U+5C64 1
 62
     2
370
    25
100
AcDbVertex
100
AcDb2dVertex
 10
107.1936999743142
 20
204.2791386169931
 30
0.0
  0
SEQEND
  5
5BE
330
5BB
100
AcDbEntity
  8
\U+5716\U+5C64 1
370
    25
  0
ENDBLK
  5
5BA
330
5B7
100
AcDbEntity
  8
0
100
AcDbBlockEnd
  0
BLOCK
  5
5C1
330
5BF
100
AcDbEntity
  8
0
100
AcDbBlockBegin
  2
block 180
 70
     0
 71
     0
 10
0.0
 20
0.0
 30
0.0
  3
block 180
  1

  0
POLYLINE
  5
5C3
330
5BF
100
AcDbEntity
  8
\U+5716\U+5C64 1
 62
     2
370
    25
100
AcDb2dPolyline
 66
     1
 10
0.0
 20
0.0
 30
0.0
  0
VERTEX
  5
5C4
330
5C3
100
AcDbEntity
  8
\U+5716\U+5C64 1
 62
     2
370
    25
100
AcDbVertex
100
AcDb2dVertex
 10
120.2216816558222
 20
204.2791386169931
 30
0.0
  0
VERTEX
  5
5C5
330
5C3
100
AcDbEntity
  8
\U+5716\U+5C64 1
 62
     2
370
    25
100
AcDbVertex
100
AcDb2dVertex
 10
142.1211345738572
 20
204.2791386169931
 30
0.0
  0
SEQEND
  5
5C6
330
5C3
100
AcDbEntity
  8
\U+5716\U+5C64 1
370
    25
  0
ENDBLK
  5
5C2
330
5BF
100
AcDbEntity
  8
0
100
AcDbBlockEnd
  0
BLOCK
  5
5C9
330
5C7
100
AcDbEntity
  8
0
100
AcDbBlockBegin
  2
block 181
 70
     0
 71
     0
 10
0.0
 20
0.0
 30
0.0
  3
block 181
  1

  0
POLYLINE
  5
5CB
330
5C7
100
AcDbEntity
  8
\U+5716\U+5C64 1
 62
     2
370
    25
100
AcDb2dPolyline
 66
     1
 10
0.0
 20
0.0
 30
0.0
  0
VERTEX
  5
5CC
330
5CB
100
AcDbEntity
  8
\U+5716\U+5C64 1
 62
     2
370
    25
100
AcDbVertex
100
AcDb2dVertex
 10
114.6382117194937
 20
204.2791386169931
 30
0.0
  0
VERTEX
  5
5CD
330
5CB
100
AcDbEntity
  8
\U+5716\U+5C64 1
 62
     2
370
    25
100
AcDbVertex
100
AcDb2dVertex
 10
116.4994257832325
 20
204.2791386169931
 30
0.0
  0
SEQEND
  5
5CE
330
5CB
100
AcDbEntity
  8
\U+5716\U+5C64 1
370
    25
  0
ENDBLK
  5
5CA
330
5C7
100
AcDbEntity
  8
0
100
AcDbBlockEnd
  0
BLOCK
  5
5D1
330
5CF
100
AcDbEntity
  8
0
100
AcDbBlockBegin
  2
block 182
 70
     0
 71
     0
 10
0.0
 20
0.0
 30
0.0
  3
block 182
  1

  0
POLYLINE
  5
5D3
330
5CF
100
AcDbEntity
  8
\U+5716\U+5C64 1
370
     0
100
AcDb2dPolyline
 66
     1
 10
0.0
 20
0.0
 30
0.0
  0
VERTEX
  5
5D4
330
5D3
100
AcDbEntity
  8
\U+5716\U+5C64 1
370
     0
100
AcDbVertex
100
AcDb2dVertex
 10
110.915955846904
 20
204.8992562134262
 30
0.0
  0
VERTEX
  5
5D5
330
5D3
100
AcDbEntity
  8
\U+5716\U+5C64 1
370
     0
100
AcDbVertex
100
AcDb2dVertex
 10
110.915955846904
 20
203.6586765107842
 30
0.0
  0
VERTEX
  5
5D6
330
5D3
100
AcDbEntity
  8
\U+5716\U+5C64 1
370
     0
100
AcDbVertex
100
AcDb2dVertex
 10
114.6382117194937
 20
204.2791386169931
 30
0.0
  0
VERTEX
  5
5D7
330
5D3
100
AcDbEntity
  8
\U+5716\U+5C64 1
370
     0
100
AcDbVertex
100
AcDb2dVertex
 10
110.915955846904
 20
204.8992562134262
 30
0.0
  0
SEQEND
  5
5D8
330
5D3
100
AcDbEntity
  8
\U+5716\U+5C64 1
370
     0
  0
HATCH
  5
5D9
330
5CF
100
AcDbEntity
  8
\U+5716\U+5C64 1
 62
     2
100
AcDbHatch
 10
0.0
 20
0.0
 30
0.0
210
0.0
220
0.0
230
1.0
  2
SOLID
 70
     1
 71
     0
 91
        1
 92
        1
 93
        3
 72
     1
 10
110.915955846904
 20
204.8992562134262
 11
110.915955846904
 21
203.6586765107842
 72
     1
 10
110.915955846904
 20
203.6586765107842
 11
114.6382117194937
 21
204.2791386169931
 72
     1
 10
114.6382117194937
 20
204.2791386169931
 11
110.915955846904
 21
204.8992562134262
 97
        0
 75
     2
 76
     1
 98
        0
  0
ENDBLK
  5
5D2
330
5CF
100
AcDbEntity
  8
0
100
AcDbBlockEnd
  0
BLOCK
  5
5DC
330
5DA
100
AcDbEntity
  8
0
100
AcDbBlockBegin
  2
block 183
 70
     0
 71
     0
 10
0.0
 20
0.0
 30
0.0
  3
block 183
  1

  0
POLYLINE
  5
5DE
330
5DA
100
AcDbEntity
  8
\U+5716\U+5C64 1
370
     0
100
AcDb2dPolyline
 66
     1
 10
0.0
 20
0.0
 30
0.0
  0
VERTEX
  5
5DF
330
5DE
100
AcDbEntity
  8
\U+5716\U+5C64 1
370
     0
100
AcDbVertex
100
AcDb2dVertex
 10
120.2216816558222
 20
204.8992562134262
 30
0.0
  0
VERTEX
  5
5E0
330
5DE
100
AcDbEntity
  8
\U+5716\U+5C64 1
370
     0
100
AcDbVertex
100
AcDb2dVertex
 10
120.2216816558222
 20
203.6586765107842
 30
0.0
  0
VERTEX
  5
5E1
330
5DE
100
AcDbEntity
  8
\U+5716\U+5C64 1
370
     0
100
AcDbVertex
100
AcDb2dVertex
 10
116.4994257832325
 20
204.2791386169931
 30
0.0
  0
VERTEX
  5
5E2
330
5DE
100
AcDbEntity
  8
\U+5716\U+5C64 1
370
     0
100
AcDbVertex
100
AcDb2dVertex
 10
120.2216816558222
 20
204.8992562134262
 30
0.0
  0
SEQEND
  5
5E3
330
5DE
100
AcDbEntity
  8
\U+5716\U+5C64 1
370
     0
  0
HATCH
  5
5E4
330
5DA
100
AcDbEntity
  8
\U+5716\U+5C64 1
 62
     2
100
AcDbHatch
 10
0.0
 20
0.0
 30
0.0
210
0.0
220
0.0
230
1.0
  2
SOLID
 70
     1
 71
     0
 91
        1
 92
        1
 93
        3
 72
     1
 10
120.2216816558222
 20
204.8992562134262
 11
120.2216816558222
 21
203.6586765107842
 72
     1
 10
120.2216816558222
 20
203.6586765107842
 11
116.4994257832325
 21
204.2791386169931
 72
     1
 10
116.4994257832325
 20
204.2791386169931
 11
120.2216816558222
 21
204.8992562134262
 97
        0
 75
     2
 76
     1
 98
        0
  0
ENDBLK
  5
5DD
330
5DA
100
AcDbEntity
  8
0
100
AcDbBlockEnd
  0
BLOCK
  5
5E7
330
5E5
100
AcDbEntity
  8
0
100
AcDbBlockBegin
  2
block 184
 70
     0
 71
     0
 10
0.0
 20
0.0
 30
0.0
  3
block 184
  1

  0
MTEXT
  5
5E9
330
5E5
100
AcDbEntity
  8
\U+5716\U+5C64 1
 62
     2
100
AcDbMText
 10
125.3676241768895
 20
206.5367111777854
 30
0.0
 40
4.838984876044339
 41
0.0
 71
     7
 72
     1
  1
\fTxt|b0|i0|c0|p34;\W1;0.25
 73
     1
 44
1.0
  0
ENDBLK
  5
5E8
330
5E5
100
AcDbEntity
  8
0
100
AcDbBlockEnd
  0
BLOCK
  5
5EC
330
5EA
100
AcDbEntity
  8
0
100
AcDbBlockBegin
  2
block 185
 70
     0
 71
     0
 10
0.0
 20
0.0
 30
0.0
  3
block 185
  1

  0
POLYLINE
  5
5EE
330
5EA
100
AcDbEntity
  8
\U+5716\U+5C64 1
370
     0
100
AcDb2dPolyline
 66
     1
 10
0.0
 20
0.0
 30
0.0
  0
VERTEX
  5
5EF
330
5EE
100
AcDbEntity
  8
\U+5716\U+5C64 1
370
     0
100
AcDbVertex
100
AcDb2dVertex
 10
114.6382117194937
 20
220.599600225785
 30
0.0
  0
VERTEX
  5
5F0
330
5EE
100
AcDbEntity
  8
\U+5716\U+5C64 1
370
     0
100
AcDbVertex
100
AcDb2dVertex
 10
114.6382117194937
 20
220.599600225785
 30
0.0
  0
SEQEND
  5
5F1
330
5EE
100
AcDbEntity
  8
\U+5716\U+5C64 1
370
     0
  0
ENDBLK
  5
5ED
330
5EA
100
AcDbEntity
  8
0
100
AcDbBlockEnd
  0
BLOCK
  5
5F4
330
5F2
100
AcDbEntity
  8
0
100
AcDbBlockBegin
  2
block 186
 70
     0
 71
     0
 10
0.0
 20
0.0
 30
0.0
  3
block 186
  1

  0
POLYLINE
  5
5F6
330
5F2
100
AcDbEntity
  8
\U+5716\U+5C64 1
370
     0
100
AcDb2dPolyline
 66
     1
 10
0.0
 20
0.0
 30
0.0
  0
VERTEX
  5
5F7
330
5F6
100
AcDbEntity
  8
\U+5716\U+5C64 1
370
     0
100
AcDbVertex
100
AcDb2dVertex
 10
116.4994257832325
 20
220.599600225785
 30
0.0
  0
VERTEX
  5
5F8
330
5F6
100
AcDbEntity
  8
\U+5716\U+5C64 1
370
     0
100
AcDbVertex
100
AcDb2dVertex
 10
116.4994257832325
 20
220.599600225785
 30
0.0
  0
SEQEND
  5
5F9
330
5F6
100
AcDbEntity
  8
\U+5716\U+5C64 1
370
     0
  0
ENDBLK
  5
5F5
330
5F2
100
AcDbEntity
  8
0
100
AcDbBlockEnd
  0
BLOCK
  5
5FC
330
5FA
100
AcDbEntity
  8
0
100
AcDbBlockBegin
  2
block 187
 70
     0
 71
     0
 10
0.0
 20
0.0
 30
0.0
  3
block 187
  1

  0
POLYLINE
  5
5FE
330
5FA
100
AcDbEntity
  8
\U+5716\U+5C64 1
370
     0
100
AcDb2dPolyline
 66
     1
 10
0.0
 20
0.0
 30
0.0
  0
VERTEX
  5
5FF
330
5FE
100
AcDbEntity
  8
\U+5716\U+5C64 1
370
     0
100
AcDbVertex
100
AcDb2dVertex
 10
116.4994257832325
 20
204.2791386169931
 30
0.0
  0
VERTEX
  5
600
330
5FE
100
AcDbEntity
  8
\U+5716\U+5C64 1
370
     0
100
AcDbVertex
100
AcDb2dVertex
 10
116.4994257832325
 20
204.2791386169931
 30
0.0
  0
SEQEND
  5
601
330
5FE
100
AcDbEntity
  8
\U+5716\U+5C64 1
370
     0
  0
ENDBLK
  5
5FD
330
5FA
100
AcDbEntity
  8
0
100
AcDbBlockEnd
  0
ENDSEC
  0
SECTION
  2
ENTITIES
  0
INSERT
  5
3D
330
1F
100
AcDbEntity
  8
\U+5716\U+5C64 1
100
AcDbBlockReference
  2
block 2
 10
0.0
 20
0.0
 30
0.0
  0
ENDSEC
  0
SECTION
  2
OBJECTS
  0
DICTIONARY
  5
C
330
0
100
AcDbDictionary
281
     1
  3
ACAD_GROUP
350
D
  3
ACAD_LAYOUT
350
1A
  3
ACAD_MLINESTYLE
350
17
  3
ACAD_PLOTSETTINGS
350
19
  3
ACAD_PLOTSTYLENAME
350
E
  3
ACAD_TABLESTYLE
350
602
  3
ACAD_VISUALSTYLE
350
2A
  0
DICTIONARY
  5
D
102
{ACAD_REACTORS
330
C
102
}
330
C
100
AcDbDictionary
281
     1
  0
DICTIONARY
  5
1A
102
{ACAD_REACTORS
330
C
102
}
330
C
100
AcDbDictionary
281
     1
  3
Layout1
350
1E
  3
Layout2
350
26
  3
Model
350
22
  0
DICTIONARY
  5
17
102
{ACAD_REACTORS
330
C
102
}
330
C
100
AcDbDictionary
281
     1
  3
Standard
350
18
  0
DICTIONARY
  5
19
102
{ACAD_REACTORS
330
C
102
}
330
C
100
AcDbDictionary
281
     1
  0
ACDBDICTIONARYWDFLT
  5
E
102
{ACAD_REACTORS
330
C
102
}
330
C
100
AcDbDictionary
281
     1
  3
Normal
350
F
100
AcDbDictionaryWithDefault
340
F
  0
DICTIONARY
  5
602
102
{ACAD_REACTORS
330
C
102
}
330
C
100
AcDbDictionary
281
     1
  0
DICTIONARY
  5
2A
102
{ACAD_REACTORS
330
C
102
}
330
C
100
AcDbDictionary
281
     1
  3
2dWireframe
350
2F
  3
3D Hidden
350
31
  3
3dWireframe
350
30
  3
Basic
350
32
  3
Brighten
350
36
  3
ColorChange
350
3A
  3
Conceptual
350
34
  3
Dim
350
35
  3
Facepattern
350
39
  3
Flat
350
2B
  3
FlatWithEdges
350
2C
  3
Gouraud
350
2D
  3
GouraudWithEdges
350
2E
  3
Linepattern
350
38
  3
Realistic
350
33
  3
Thicken
350
37
  0
LAYOUT
  5
1E
102
{ACAD_REACTORS
330
1A
102
}
330
1A
100
AcDbPlotSettings
  1

  2
none_device
  4

  6

 40
0.0
 41
0.0
 42
0.0
 43
0.0
 44
0.0
 45
0.0
 46
0.0
 47
0.0
 48
0.0
 49
0.0
140
0.0
141
0.0
142
1.0
143
1.0
 70
   688
 72
     0
 73
     0
 74
     5
  7

 75
    16
147
1.0
148
0.0
149
0.0
100
AcDbLayout
  1
Layout1
 70
     1
 71
     1
 10
0.0
 20
0.0
 11
12.0
 21
9.0
 12
0.0
 22
0.0
 32
0.0
 14
1.000000000000000E+20
 24
1.000000000000000E+20
 34
1.000000000000000E+20
 15
-1.000000000000000E+20
 25
-1.000000000000000E+20
 35
-1.000000000000000E+20
146
0.0
 13
0.0
 23
0.0
 33
0.0
 16
1.0
 26
0.0
 36
0.0
 17
0.0
 27
1.0
 37
0.0
 76
     0
330
1B
  0
LAYOUT
  5
26
102
{ACAD_REACTORS
330
1A
102
}
330
1A
100
AcDbPlotSettings
  1

  2
none_device
  4

  6

 40
0.0
 41
0.0
 42
0.0
 43
0.0
 44
0.0
 45
0.0
 46
0.0
 47
0.0
 48
0.0
 49
0.0
140
0.0
141
0.0
142
1.0
143
1.0
 70
   688
 72
     0
 73
     0
 74
     5
  7

 75
    16
147
1.0
148
0.0
149
0.0
100
AcDbLayout
  1
Layout2
 70
     1
 71
     2
 10
0.0
 20
0.0
 11
0.0
 21
0.0
 12
0.0
 22
0.0
 32
0.0
 14
0.0
 24
0.0
 34
0.0
 15
0.0
 25
0.0
 35
0.0
146
0.0
 13
0.0
 23
0.0
 33
0.0
 16
1.0
 26
0.0
 36
0.0
 17
0.0
 27
1.0
 37
0.0
 76
     0
330
23
  0
LAYOUT
  5
22
102
{ACAD_REACTORS
330
1A
102
}
330
1A
100
AcDbPlotSettings
  1

  2
none_device
  4

  6

 40
0.0
 41
0.0
 42
0.0
 43
0.0
 44
0.0
 45
0.0
 46
0.0
 47
0.0
 48
0.0
 49
0.0
140
0.0
141
0.0
142
1.0
143
1.0
 70
  1712
 72
     0
 73
     0
 74
     0
  7

 75
     0
147
1.0
148
0.0
149
0.0
100
AcDbLayout
  1
Model
 70
     1
 71
     0
 10
0.0
 20
0.0
 11
12.0
 21
9.0
 12
0.0
 22
0.0
 32
0.0
 14
1.000000000000000E+20
 24
1.000000000000000E+20
 34
1.000000000000000E+20
 15
-1.000000000000000E+20
 25
-1.000000000000000E+20
 35
-1.000000000000000E+20
146
0.0
 13
0.0
 23
0.0
 33
0.0
 16
1.0
 26
0.0
 36
0.0
 17
0.0
 27
1.0
 37
0.0
 76
     0
330
1F
331
29
  0
MLINESTYLE
  5
18
102
{ACAD_REACTORS
330
17
102
}
330
17
100
AcDbMlineStyle
  2
Standard
 70
     0
  3

 62
   256
 51
90.0
 52
90.0
 71
     2
 49
0.5
 62
   256
  6
BYLAYER
 49
-0.5
 62
   256
  6
BYLAYER
  0
ACDBPLACEHOLDER
  5
F
102
{ACAD_REACTORS
330
E
102
}
330
E
  0
VISUALSTYLE
  5
2F
102
{ACAD_REACTORS
330
2A
102
}
330
2A
100
AcDbVisualStyle
  2
2dWireframe
 70
     4
 71
     0
 72
     2
 73
     0
 90
        0
 40
-0.6
 41
-30.0
 62
     5
 63
     7
 74
     1
 91
        4
 64
     7
 65
   257
 75
     1
175
     1
 42
1.0
 92
        0
 66
   257
 43
1.0
 76
     1
 77
     6
 78
     2
 67
     7
 79
     5
170
     0
171
     0
290
     0
174
     0
 93
        1
 44
0.0
173
     0
291
     0
 45
0.0
1001
ACAD
1000
AcDbSavedByObjectVersion
1070
     0
  0
VISUALSTYLE
  5
31
102
{ACAD_REACTORS
330
2A
102
}
330
2A
100
AcDbVisualStyle
  2
3D Hidden
 70
     6
 71
     1
 72
     2
 73
     2
 90
        0
 40
-0.6
 41
-30.0
 62
     5
 63
     7
 74
     2
 91
        2
 64
     7
 65
   257
 75
     2
175
     1
 42
40.0
 92
        0
 66
   257
 43
1.0
 76
     1
 77
     6
 78
     2
 67
     7
 79
     3
170
     0
171
     0
290
     0
174
     0
 93
        1
 44
0.0
173
     0
291
     0
 45
0.0
1001
ACAD
1000
AcDbSavedByObjectVersion
1070
     0
  0
VISUALSTYLE
  5
30
102
{ACAD_REACTORS
330
2A
102
}
330
2A
100
AcDbVisualStyle
  2
3dWireframe
 70
     5
 71
     0
 72
     2
 73
     0
 90
        0
 40
-0.6
 41
-30.0
 62
     5
 63
     7
 74
     1
 91
        4
 64
     7
 65
   257
 75
     1
175
     1
 42
1.0
 92
        0
 66
   257
 43
1.0
 76
     1
 77
     6
 78
     2
 67
     7
 79
     5
170
     0
171
     0
290
     0
174
     0
 93
        1
 44
0.0
173
     0
291
     0
 45
0.0
1001
ACAD
1000
AcDbSavedByObjectVersion
1070
     0
  0
VISUALSTYLE
  5
32
102
{ACAD_REACTORS
330
2A
102
}
330
2A
100
AcDbVisualStyle
  2
Basic
 70
     7
 71
     1
 72
     0
 73
     1
 90
        0
 40
-0.6
 41
-30.0
 62
     5
 63
     7
 74
     0
 91
        4
 64
     7
 65
   257
 75
     1
175
     1
 42
1.0
 92
        8
 66
     7
 43
1.0
 76
     1
 77
     6
 78
     2
 67
     7
 79
     5
170
     0
171
     0
290
     0
174
     0
 93
        1
 44
0.0
173
     0
291
     1
 45
0.0
1001
ACAD
1000
AcDbSavedByObjectVersion
1070
     0
  0
VISUALSTYLE
  5
36
102
{ACAD_REACTORS
330
2A
102
}
330
2A
100
AcDbVisualStyle
  2
Brighten
 70
    12
 71
     2
 72
     2
 73
     0
 90
        0
 40
-0.6
 41
-30.0
 62
     5
 63
     7
 74
     1
 91
        4
 64
     7
 65
   257
 75
     1
175
     1
 42
1.0
 92
        8
 66
     7
 43
1.0
 76
     1
 77
     6
 78
     2
 67
     7
 79
     5
170
     0
171
     0
290
     0
174
     0
 93
        1
 44
50.0
173
     0
291
     1
 45
0.0
1001
ACAD
1000
AcDbSavedByObjectVersion
1070
     0
  0
VISUALSTYLE
  5
3A
102
{ACAD_REACTORS
330
2A
102
}
330
2A
100
AcDbVisualStyle
  2
ColorChange
 70
    16
 71
     2
 72
     2
 73
     3
 90
        0
 40
-0.6
 41
-30.0
 62
     5
 63
     8
 74
     1
 91
        4
 64
     7
 65
   257
 75
     1
175
     1
 42
1.0
 92
        8
 66
     8
 43
1.0
 76
     1
 77
     6
 78
     2
 67
     7
 79
     5
170
     0
171
     0
290
     0
174
     0
 93
        1
 44
0.0
173
     0
291
     1
 45
0.0
1001
ACAD
1000
AcDbSavedByObjectVersion
1070
     0
  0
VISUALSTYLE
  5
34
102
{ACAD_REACTORS
330
2A
102
}
330
2A
100
AcDbVisualStyle
  2
Conceptual
 70
     9
 71
     3
 72
     2
 73
     0
 90
        0
 40
-0.6
 41
-30.0
 62
     5
 63
     7
 74
     2
 91
        2
 64
     7
 65
   257
 75
     1
175
     1
 42
40.0
 92
        8
 66
     7
 43
1.0
 76
     1
 77
     6
 78
     2
 67
     7
 79
     3
170
     0
171
     0
290
     0
174
     0
 93
        1
 44
0.0
173
     0
291
     0
 45
0.0
1001
ACAD
1000
AcDbSavedByObjectVersion
1070
     0
  0
VISUALSTYLE
  5
35
102
{ACAD_REACTORS
330
2A
102
}
330
2A
100
AcDbVisualStyle
  2
Dim
 70
    11
 71
     2
 72
     2
 73
     0
 90
        0
 40
-0.6
 41
-30.0
 62
     5
 63
     7
 74
     1
 91
        4
 64
     7
 65
   257
 75
     1
175
     1
 42
1.0
 92
        8
 66
     7
 43
1.0
 76
     1
 77
     6
 78
     2
 67
     7
 79
     5
170
     0
171
     0
290
     0
174
     0
 93
        1
 44
-50.0
173
     0
291
     1
 45
0.0
1001
ACAD
1000
AcDbSavedByObjectVersion
1070
     0
  0
VISUALSTYLE
  5
39
102
{ACAD_REACTORS
330
2A
102
}
330
2A
100
AcDbVisualStyle
  2
Facepattern
 70
    15
 71
     2
 72
     2
 73
     0
 90
        0
 40
-0.6
 41
-30.0
 62
     5
 63
     7
 74
     1
 91
        4
 64
     7
 65
   257
 75
     1
175
     1
 42
1.0
 92
        8
 66
     7
 43
1.0
 76
     1
 77
     6
 78
     2
 67
     7
 79
     5
170
     0
171
     0
290
     0
174
     0
 93
        1
 44
0.0
173
     0
291
     1
 45
0.0
1001
ACAD
1000
AcDbSavedByObjectVersion
1070
     0
  0
VISUALSTYLE
  5
2B
102
{ACAD_REACTORS
330
2A
102
}
330
2A
100
AcDbVisualStyle
  2
Flat
 70
     0
 71
     2
 72
     1
 73
     1
 90
        2
 40
-0.6
 41
30.0
 62
     5
 63
     7
 74
     0
 91
        4
 64
     7
 65
   257
 75
     1
175
     1
 42
1.0
 92
        8
 66
     7
 43
1.0
 76
     1
 77
     6
 78
     2
 67
     7
 79
     5
170
     0
171
     0
290
     0
174
     0
 93
       13
 44
0.0
173
     0
291
     1
 45
0.0
1001
ACAD
1000
AcDbSavedByObjectVersion
1070
     0
  0
VISUALSTYLE
  5
2C
102
{ACAD_REACTORS
330
2A
102
}
330
2A
100
AcDbVisualStyle
  2
FlatWithEdges
 70
     1
 71
     2
 72
     1
 73
     1
 90
        2
 40
-0.6
 41
30.0
 62
     5
 63
     7
 74
     1
 91
        4
 64
     7
 65
   257
 75
     1
175
     1
 42
1.0
 92
        0
 66
   257
 43
1.0
 76
     1
 77
     6
 78
     2
 67
     7
 79
     5
170
     0
171
     0
290
     0
174
     0
 93
       13
 44
0.0
173
     0
291
     1
 45
0.0
1001
ACAD
1000
AcDbSavedByObjectVersion
1070
     0
  0
VISUALSTYLE
  5
2D
102
{ACAD_REACTORS
330
2A
102
}
330
2A
100
AcDbVisualStyle
  2
Gouraud
 70
     2
 71
     2
 72
     2
 73
     1
 90
        2
 40
-0.6
 41
30.0
 62
     5
 63
     7
 74
     0
 91
        4
 64
     7
 65
   257
 75
     1
175
     1
 42
1.0
 92
        0
 66
     7
 43
1.0
 76
     1
 77
     6
 78
     2
 67
     7
 79
     5
170
     0
171
     0
290
     0
174
     0
 93
       13
 44
0.0
173
     0
291
     1
 45
0.0
1001
ACAD
1000
AcDbSavedByObjectVersion
1070
     0
  0
VISUALSTYLE
  5
2E
102
{ACAD_REACTORS
330
2A
102
}
330
2A
100
AcDbVisualStyle
  2
GouraudWithEdges
 70
     3
 71
     2
 72
     2
 73
     1
 90
        2
 40
-0.6
 41
30.0
 62
     5
 63
     7
 74
     1
 91
        4
 64
     7
 65
   257
 75
     1
175
     1
 42
1.0
 92
        0
 66
   257
 43
1.0
 76
     1
 77
     6
 78
     2
 67
     7
 79
     5
170
     0
171
     0
290
     0
174
     0
 93
       13
 44
0.0
173
     0
291
     1
 45
0.0
1001
ACAD
1000
AcDbSavedByObjectVersion
1070
     0
  0
VISUALSTYLE
  5
38
102
{ACAD_REACTORS
330
2A
102
}
330
2A
100
AcDbVisualStyle
  2
Linepattern
 70
    14
 71
     2
 72
     2
 73
     0
 90
        0
 40
-0.6
 41
-30.0
 62
     5
 63
     7
 74
     1
 91
        4
 64
     7
 65
   257
 75
     7
175
     7
 42
1.0
 92
        8
 66
     7
 43
1.0
 76
     1
 77
     6
 78
     2
 67
     7
 79
     5
170
     0
171
     0
290
     0
174
     0
 93
        1
 44
0.0
173
     0
291
     1
 45
0.0
1001
ACAD
1000
AcDbSavedByObjectVersion
1070
     0
  0
VISUALSTYLE
  5
33
102
{ACAD_REACTORS
330
2A
102
}
330
2A
100
AcDbVisualStyle
  2
Realistic
 70
     8
 71
     2
 72
     2
 73
     0
 90
        0
 40
-0.6
 41
-30.0
 62
     5
 63
     7
 74
     1
 91
        0
 64
     7
 65
   257
 75
     1
175
     1
 42
1.0
 92
        8
 66
     8
 43
1.0
 76
     1
 77
     6
 78
     2
 67
     7
 79
     5
170
     0
171
     0
290
     0
174
     0
 93
       13
 44
0.0
173
     0
291
     0
 45
0.0
1001
ACAD
1000
AcDbSavedByObjectVersion
1070
     0
  0
VISUALSTYLE
  5
37
102
{ACAD_REACTORS
330
2A
102
}
330
2A
100
AcDbVisualStyle
  2
Thicken
 70
    13
 71
     2
 72
     2
 73
     0
 90
        0
 40
-0.6
 41
-30.0
 62
     5
 63
     7
 74
     1
 91
        4
 64
     7
 65
   257
 75
     1
175
     1
 42
1.0
 92
       12
 66
     7
 43
1.0
 76
     1
 77
     6
 78
     2
 67
     7
 79
     5
170
     0
171
     0
290
     0
174
     0
 93
        1
 44
0.0
173
     0
291
     1
 45
0.0
1001
ACAD
1000
AcDbSavedByObjectVersion
1070
     0
  0
ENDSEC
  0
EOF
